Let Me Go Home- Buble

(/) Slide Up  (\) Slide Down  (h) Hammer On  (p) Pull Off  (b) Bend (r) Release (v) Vibrato


E|---------------------14v--|-------------------|----------------------------|----------|--
B|---------15v--15h17-------|------15--17-------|----------------------------|----------|--
G|--11h12-------------------|--16----------16v--|--14--12--11v--12--14--11v--|----------|--
D|--------------------------|-------------------|----------------------------|--12--14--|--
A|--------------------------|-------------------|----------------------------|----------|--
E|--------------------------|-------------------|----------------------------|----------|--



E|----------------------------15--14-------------------|-------------------
B|----------15--12v-------------------15------15-------|----------15--12v--
G|-------------------14--12v--------------16------16v--|--12--14-----------
D|--12--14---------------------------------------------|-------------------
A|-----------------------------------------------------|-------------------
E|-----------------------------------------------------|-------------------
http://www.guitartabcreator.com
Guitar Tab Creator is intended to store guitar tab created through the tool. It currently does not support in-line text editing. Any text you place in here will be lost. If you need to comment on your tab, please use the "Tab Notes" section located below.