Honey, I'm Home...Shania Twain

(/) Slide Up  (\) Slide Down  (h) Hammer On  (p) Pull Off  (b) Bend (r) Release (v) Vibrato

E|------------------------|----------------------------|-------------------------|------------------
B|------------------------|----------------------------|-------------------------|------------------
G|--11b11--9v--9\7--9-----|--11b11--9--9--14--14--12v--|--11--11--9--9--7--9-----|--11--9--9/14-----
D|---------------------9--|----------------------------|----------------------9--|------------------
A|------------------------|----------------------------|-------------------------|------------------
E|------------------------|----------------------------|-------------------------|------------------



E|----------------|--------------------|--
B|----------------|----------5-----5v--|--
G|----------------|--5/7--7-----7------|--
D|----------------|--------------------|--
A|----------------|--------------------|--
E|----------------|--------------------|--



E|--9h10--9h10--9h10--9h10--9--7--|--9h10--9h10--9h10--9h10--9--7--|--
B|--------------------------------|--------------------------------|--
G|--------------------------------|--------------------------------|--
D|--------------------------------|--------------------------------|--
A|--------------------------------|--------------------------------|--
E|--------------------------------|--------------------------------|--



E|------------------------|---------------------------|---------------------------------|--
B|------------15--13------|---------------------------|---------------------------------|--
G|--9/14--------------14--|---------------------------|--5/9--9b9--10b10--11b11--12b12--|--
D|------------------------|--12\2--2--2--2p0----------|---------------------------------|--
A|------------------------|-------------------2b2-----|---------------------------------|--
E|--------12--------------|------------------------0--|---------------------------------|--



E|-------------------------|---------------------------|--------------------------------------
B|-------------------------|---------------------------|--------------------------------------
G|--11b11--9v--9--7--9-----|--11b11--9--11/14--14--12--|--11b11--9--9--7h9-----11--9--14--14--
D|----------------------9--|---------------------------|--------------------9-----------------
A|-------------------------|---------------------------|--------------------------------------
E|-------------------------|---------------------------|--------------------------------------
http://www.guitartabcreator.com
Guitar Tab Creator is intended to store guitar tab created through the tool. It currently does not support in-line text editing. Any text you place in here will be lost. If you need to comment on your tab, please use the "Tab Notes" section located below.