Don't Rush---D

(/) Slide Up  (\) Slide Down  (h) Hammer On  (p) Pull Off  (b) Bend (r) Release (v) Vibrato

Stave 1:

E|---------------|-----------------------|----------------------|-----------|-----------------
B|--10------10v--|------10--12--14--10v--|--10/12--10--12-------|-----------|-----------------
G|------11-------|--11-------------------|-----------------11v--|--11\9--7--|-----------------
D|---------------|-----------------------|----------------------|-----------|-----------------
A|---------------|-----------------------|----------------------|-----------|-----------------
E|---------------|-----------------------|----------------------|-----------|-----------------

Stave 2:

E|-------------------------------10v--|----------10--12b12v--10v--|--12\14--17--14--19v--|--
B|--------10------10------------------|--10--12-------------------|----------------------|--
G|--9/11------11------9b11r9--7-------|---------------------------|----------------------|--
D|------------------------------------|---------------------------|----------------------|--
A|------------------------------------|---------------------------|----------------------|--
E|------------------------------------|---------------------------|----------------------|--

Stave 3:

E|--17b19--19r17-----------|--
B|----------------19--15v--|--
G|-------------------------|--
D|-------------------------|--
A|-------------------------|--
E|-------------------------|--

http://www.guitartabcreator.com
Guitar Tab Creator is intended to store guitar tab created through the tool. It currently does not support in-line text editing. Any text you place in here will be lost. If you need to comment on your tab, please use the "Tab Notes" section located below.