Done-The Band Perry in F

(/) Slide Up  (\) Slide Down  (h) Hammer On  (p) Pull Off  (b) Bend (r) Release (v) Vibrato

Stave 1:

E|--8h11--8h11--8h11--|--|--8h11--8--------------------8h11--8--------------------8--11--8--11/13--|--
B|--------------------|--|-----------11--9------9--11-----------11--9------9--11-------------------|--
G|--------------------|--|------------------10-------------------------10--------------------------|--
D|--------------------|--|-------------------------------------------------------------------------|--
A|--------------------|--|-------------------------------------------------------------------------|--
E|--------------------|--|-------------------------------------------------------------------------|--

Stave 2:

E|--18b19--18--16------|--18b19--18--16--------------16--------------------------------------------
B|-----------------18--|-----------------18--16--18------18--16-------------16---------------------
G|---------------------|-----------------------------------------17--16b17------17r16--15--13------
D|---------------------|-----------------------------------------------------------------------15--
A|---------------------|---------------------------------------------------------------------------
E|---------------------|---------------------------------------------------------------------------

Stave 3:

E|----------------------------|---------
B|----------------------------|---------
G|----------------------------|---------
D|---------15-----------------|---------
A|--14b15------15b16--16--11--|---------
E|----------------------------|--13/16--

http://www.guitartabcreator.com
Guitar Tab Creator is intended to store guitar tab created through the tool. It currently does not support in-line text editing. Any text you place in here will be lost. If you need to comment on your tab, please use the "Tab Notes" section located below.