my first

(/) Slide Up  (\) Slide Down  (h) Hammer On  (p) Pull Off  (b) Bend (r) Release (v) Vibrato
E|----------------------------------------------------17-------17------------------------------------
B|-------15-18-------------17-17-------------------16-------------16-19----20-------------15-16-18---
G|----------------16-------------------------18-------------17----------20----21-------15------------
D|----17-------19----18-------------------------16-------------------------------20------------------
A|----------------------16-------18-16----19-------------15-------------------------17---------------
E|-16----------------------------------17------------------------------------------------------------



E|-------------------------------------------------------------------------------14-19-16-------------
B|-19-17----------------------------------------15----16----------18----16b15-20----------------------
G|-------17----------------------19----------18----20----------14----------------------------------17-
D|----------18-------15/18----16-------17-19-------------17-------------------------------17----------
A|-------------16-15-------18-------19----------------------15-------20----------------------14-------
E|----------------------------------------------------------------------------------------------18----



E|----------------------------------------------------------------------------------------------------
B|----------------18-15v-16-17----------------------14----------------------------------------19------
G|----12--------------------------------18----------------18h17-16-15-------13-------------------16---
D|-------17-16-----------------15-20-17-------------------------------19-------15-15/18v--------------
A|-12----------19--------------------------18-15-18----16---------------------------------------------
E|-----------------------------------------------------------------------17---------------------------



E|----------------------------------------------------19\15-----------------------------------------
B|----17-------------------16----------17/20-------18---------14v-----------------------------------
G|-------17-15----------16----18-----------------------------------16-------14----------------------
D|-16----------17----------------14----------19-20----------------------18-----15v------------------
A|----------------17-16------------------------------------------------------------18----18----16---
E|----------------------------------18------------------------------------------------17----19------



E|-------------------------------------------------------------------------------------------------
B|-------------------------------------------------------------------------------------------------
G|-----------------17---------------------17--------------------------16---------18----------------
D|------------16-------19--------18-16-19--------------------------17----15v-v------16-20-------17-
A|------------------------17-----------------17-16--18/19/20\17\15------------------------20-18----
E|-------------------------------------------------------------------------------------------------



E|---------------------------------------------------------------------------------------------
B|-----------------------------------------------------------------------------------12v-h10---
G|------------------------------15v------------------------------16-----17v--14v--13-----------
D|----------14v----------------------14v--16v-\13--14v--15----17-------------------------------
A|-----13v-------14v--13v--15v-----------------------------16--------17------------------------
E|---------------------------------------------------------------------------------------------



E|---------------------------------------------------------------------------------------------------
B|---------------------------------------------------------------------------------------------------
G|----12-------------16----12-------------16-------16----------12----------15----------13-17-14------
D|-------15-17----------13-------15-17----------------13----------14----------12----16----------15---
A|-12----------14-16----------12-------16----14-16-------14-12-------15-13-------17------------------
E|---------------------------------------------------------------------------------------------------



E|--------------------------------------------------------------------------------------------------
B|-15-15-15-15-13-15-14-13----------------------16----12----------14-16v-------------16-14-------16-
G|-------------------------12-14-13-------15-16----14-------15-14--------------15-16-------14-15----
D|----------------------------------15-14----------------13-----------------------------------------
A|--------------------------------------------------------------------------------------------------
E|--------------------------------------------------------------------------------------------------



E|--------------------------------------------------------------------------------------------------
B|-16-16-16-16-14-16-15-14----------------------17----13----------15-17v-------------17-15-------17-
G|-------------------------13-15-14-------14-15----15-------16-15--------------16-17-------15-16----
D|----------------------------------16-17----------------14-----------------------------------------
A|--------------------------------------------------------------------------------------------------
E|--------------------------------------------------------------------------------------------------



E|--------------------
B|--------------------
G|-16v--15v--14v-\8---
D|--------------------
A|--------------------
E|--------------------
http://www.guitartabcreator.com
Guitar Tab Creator is intended to store guitar tab created through the tool. It currently does not support in-line text editing. Any text you place in here will be lost. If you need to comment on your tab, please use the "Tab Notes" section located below.