scarycrampslsdfkjaosdfkj

(/) Slide Up  (\) Slide Down  (h) Hammer On  (p) Pull Off  (b) Bend (r) Release (v) Vibrato


E|--------------------------------------------------------------------------------
B|-----4-----4-----4-----4-----4-----4-----4-----4-----3-----3-----1-----1-----1--
G|--------------------------------------------------------------------------------
D|--------------------------------------------------------------------------------
A|--3-----3-----3-----3-----3-----3-----3-----3-----2-----2-----0-----0-----0-----
E|--------------------------------------------------------------------------------



E|--------------------------------------------------------------------------------------
B|-----4-----4-----3-----3-----1-----1-----1-----4-----4-----3-----3-----1-----1-----1--
G|--------------------------------------------------------------------------------------
D|--------------------------------------------------------------------------------------
A|--3-----3-----2-----2-----0-----0-----0-----3-----3-----2-----2-----0-----0-----0-----
E|--------------------------------------------------------------------------------------



E|--------------------------------------------------------------------------------
B|-----4-----4-----3-----3-----1-----1-----1-----4-----4-----4-----4-----4-----4--
G|--------------------------------------------------------------------------------
D|--------------------------------------------------------------------------------
A|--3-----3-----2-----2-----0-----0-----0-----3-----3-----3-----3-----3-----3-----
E|--------------------------------------------------------------------------------



E|--------------------------------------------------------------------------------------
B|-----4-----4-----3-----3-----1-----1-----1-----4-----4-----3-----3-----1-----1-----1--
G|--------------------------------------------------------------------------------------
D|--------------------------------------------------------------------------------------
A|--3-----3-----2-----2-----0-----0-----0-----3-----3-----2-----2-----0-----0-----0-----
E|--------------------------------------------------------------------------------------



E|--------------------------------------------------------------------------------------
B|-----4-----4-----3-----3-----1-----1-----1-----4-----4-----3-----3-----1-----1-----1--
G|--------------------------------------------------------------------------------------
D|--------------------------------------------------------------------------------------
A|--3-----3-----2-----2-----0-----0-----0-----3-----3-----2-----2-----0-----0-----0-----
E|--------------------------------------------------------------------------------------



E|--------------------------------------------------------------------------
B|-----4-----4-----4-----6-----6-----6-----7-----7-----7-----9-----9-----9--
G|--------------------------------------------------------------------------
D|--------------------------------------------------------------------------
A|--3-----3-----3-----5-----5-----5-----6-----6-----6-----8-----8-----8-----
E|--------------------------------------------------------------------------



E|-------------------------------------------------------------------------------
B|-----9-----9-----9-----9--9--9--9--9--9\4--4--4-----4-----4-----4-----4-----4--
G|-------------------------------------------------------------------------------
D|-------------------------------------------------------------------------------
A|--8-----8-----8-----8--8--8--8--8--8--8-3--3--3--3-----3-----3-----3-----3-----
E|-------------------------------------------------------------------------------



E|--------------------------------------------------------
B|-----4-----4-----------4-----4-----------4-----4--------
G|-----------------5-----------------5-----------------5--
D|--------------------------------------------------------
A|--3-----3-----3-----3-----3-----3-----3-----3-----3-----
E|--------------------------------------------------------
http://www.guitartabcreator.com
Guitar Tab Creator is intended to store guitar tab created through the tool. It currently does not support in-line text editing. Any text you place in here will be lost. If you need to comment on your tab, please use the "Tab Notes" section located below.