Rain from the sun

(/) Slide Up  (\) Slide Down  (h) Hammer On  (p) Pull Off  (b) Bend (r) Release (v) Vibrato

E|----------------------------------------------------------------------------------------
B|-----------0-------------------0------------------0-----------------0-------------------
G|---------0---0---------------0---0--------------0---0-------------0---0-------------0---
D|------10-------10---------10-------10---------9-------9---------9-------9---------9-----
A|---10-------------10---10-------------10---10-----------10---10-----------10---10-------
E|-0-------------------0-------------------0-----------------0-----------------0----------



E|-------------------------
B|-0-----------------0-----
G|---0-------------0---0---
D|-----7---------7-------7-
A|-------10---10-----------
E|----------0--------------



E|--1--1--1--1--1--1--1--0--0--0--0--0--0--0--
B|--3--3--3--3--3--3--3--3--3--3--3--3--3--3--
G|--2--2--2--2--2--2--2--2--2--2--2--2--2--2--
D|--------------------------------------------
A|--------------------------------------------
E|--------------------------------------------



E|--5--5--5--5--5--5--0--0--0--0--0--0--0--
B|--5--5--5--5--5--5--0--0--0--0--0--0--0--
G|--5--5--5--5--5--5--5--5--5--5--5--5--5--
D|--3--3--3--3--3--3--5--5--5--5--5--5--5--
A|--------------------3--3--3--3--3--3--3--
E|--------------------0--0--0--0--0--0--0--



E|---------------------
B|---------------------
G|---------------------
D|-2-2-2-2-------------
A|-2-2-2-2-------------
E|-0-0-0-0-3p0---------
http://www.guitartabcreator.com
Guitar Tab Creator is intended to store guitar tab created through the tool. It currently does not support in-line text editing. Any text you place in here will be lost. If you need to comment on your tab, please use the "Tab Notes" section located below.