chillout

(/) Slide Up  (\) Slide Down  (h) Hammer On  (p) Pull Off  (b) Bend (r) Release (v) Vibrato


E|--------------------------------------------------------------
B|--------------3-----------------------------3-----------------
G|-----------4-----4-----------------------4-----4--------------
D|--------4-----------4-----------------4-----------4-----------
A|-----------------------0--2--4-----------------------0--2--4--
E|--3--3--------------------------3--3--------------------------



E|----------------------------------------------------------------------
B|--------------3h4p3-----------------------------3h4p3-----------------
G|-----------4---------4-----------------------4---------4--------------
D|--------4---------------4-----------------4---------------4-----------
A|---------------------------2--4--6---------------------------2--4--6--
E|--3--3------------------------------3--3------------------------------
http://www.guitartabcreator.com
Guitar Tab Creator is intended to store guitar tab created through the tool. It currently does not support in-line text editing. Any text you place in here will be lost. If you need to comment on your tab, please use the "Tab Notes" section located below.