Blues Lick (In the Style of BB King)

(/) Slide Up  (\) Slide Down  (h) Hammer On  (p) Pull Off  (b) Bend (r) Release (v) Vibrato


E|------------------------8-----------------------------------------------------------------------
B|---------------8---10-------10/13v---10---8---------10---8---------10---8---------8-------------
G|---------8h9----------------------------------8b9------------8b9------------8b9-------8---------
D|---10v------------------------------------------------------------------------------------10v---
A|------------------------------------------------------------------------------------------------
E|------------------------------------------------------------------------------------------------



E|-------------------------------------
B|-------------------------------------
G|-------------------------------------
D|---10---8--------------------8/10v---
A|------------10---9---8---7-----------
E|-------------------------------------
http://www.guitartabcreator.com
Guitar Tab Creator is intended to store guitar tab created through the tool. It currently does not support in-line text editing. Any text you place in here will be lost. If you need to comment on your tab, please use the "Tab Notes" section located below.