Amy in the TARDIS by Murray Gold

(/) Slide Up  (\) Slide Down  (h) Hammer On  (p) Pull Off  (b) Bend (r) Release (v) Vibrato

E|------17----14--15--17--18----18--15----12--13--15--17----18--15----12--13--15--14--
B|--15--------------------------------------------------------------------------------
G|------------------------------------------------------------------------------------
D|------------------------------------------------------------------------------------
A|------------------------------------------------------------------------------------
E|------------------------------------------------------------------------------------



E|--5--3-----------5--3--------
B|--------6--5--3--------6--5--
G|-----------------------------
D|-----------------------------
A|-----------------------------
E|-----------------------------



E|--10-----8-----6-----5-----3-----1-----0--
B|------------------------3-----3-----3-----
G|------7-----7-----7-----------------------
D|------------------------------------------
A|------------------------------------------
E|------------------------------------------



E|-------8----6----5----3----1----0-------
B|-------------------------------------3--
G|--7-------------------------------------
D|----------------------------------------
A|----------------------------------------
E|----------------------------------------



E|--10--8--6--5--3--1--0-----8--6--5-----10--8--6------12--10--8------13--12--10--
B|------------------------------------8------------10-------------11--------------
G|------------------------7-------------------------------------------------------
D|--------------------------------------------------------------------------------
A|--------------------------------------------------------------------------------
E|--------------------------------------------------------------------------------



E|--5--3--------------5--3--------------8--6--5-----------8--6------8---------10--8-------------
B|--------6--5--3-----------6--5-----------------8--6--5--------10-------------------11--10-----
G|-----------------5--------------7--5---------------------------------10--9--------------------
D|----------------------------------------------------------------------------------------------
A|----------------------------------------------------------------------------------------------
E|----------------------------------------------------------------------------------------------



E|----------12--10------------------13--12--10----------
B|------------------13--11--10------------------13--11--
G|--12--10----------------------12----------------------
D|------------------------------------------------------
A|------------------------------------------------------
E|------------------------------------------------------
http://www.guitartabcreator.com
Guitar Tab Creator is intended to store guitar tab created through the tool. It currently does not support in-line text editing. Any text you place in here will be lost. If you need to comment on your tab, please use the "Tab Notes" section located below.