C's Original #4

(/) Slide Up  (\) Slide Down  (h) Hammer On  (p) Pull Off  (b) Bend (r) Release (v) Vibrato
E|--------------------------------------------------------------------------14-------14-|-
B|-----------------------------------------------------------------------17----------14-|-
G|-16b18r16-14-----------14-16-16b18r16-14-16-------14-16-16b18r16-14-16-------16-14----|-
D|-------------16--14h16----------------------14h16-------------------------------------|-
A|--------------------------------------------------------------------------------------|-
E|--------------------------------------------------------------------------------------|-



E|--------------------17-16-14-------------------14-------------------------------------|-
B|-17b19-16-14--------17-------17-14-17b19-14/17----17-14-------------------------17-19-|-
G|-------15----14-----------------------------------------16-14----------14-16/18-------|-
D|----------------16--------------------------------------------16-14h16----------------|-
A|--------------------------------------------------------------------------------------|-
E|--------------------------------------------------------------------------------------|-



E|--------------------------------------------------------------------------------------|-
B|-------17-16-------17-16-------17-16-12-14--------17-16-------17-16-------17-16-------|-
G|-14h16-------14h16-------14h16--------------14h16-------14h16-------14h16-------14----|-
D|-----------------------------------------------------------------------------------16-|-
A|--------------------------------------------------------------------------------------|-
E|--------------------------------------------------------------------------------------|-



E|----------------------------------17-16----14h17p14----14-|-
B|-------17-16-------17-16-------17-------17----------17----|-
G|-14h16-------14h16-------14h16----------------------------|-
D|----------------------------------------------------------|-
A|----------------------------------------------------------|-
E|----------------------------------------------------------|-



E|------------------------------------------------------------------------------------------------|--
B|--17b19r17--14---------17-----------------------------------16--14------16--14------16--14------|--
G|----------------16b18------16p14--16p14--16b18--14----------16--14------16--14------16--14------|--
D|----------------------------------------------------16--14----------16----------16----------16--|--
A|------------------------------------------------------------------------------------------------|--
E|------------------------------------------------------------------------------------------------|--
http://www.guitartabcreator.com
Guitar Tab Creator is intended to store guitar tab created through the tool. It currently does not support in-line text editing. Any text you place in here will be lost. If you need to comment on your tab, please use the "Tab Notes" section located below.