show me how you wine lead guitar

(/) Slide Up  (\) Slide Down  (h) Hammer On  (p) Pull Off  (b) Bend (r) Release (v) Vibrato


E|---------------------------------------------------------------
B|-----------------------------------------------------------9---
G|-----------------------------------------------------------9---
D|-----------------------------------------------------------11--
A|-----9-----9--7--9--------9-----9--7--9--------7--9------------
E|--9-----9-----------7--9-----9-----------7--9--------9--7--9---



E|-------------------------------------------------
B|----------------9--------------------------------
G|------9------9-----9------9--11--11--9h11p9------
D|--11-----11-----------11---------------------11--
A|-------------------------------------------------
E|-------------------------------------------------



http://www.guitartabcreator.com
Guitar Tab Creator is intended to store guitar tab created through the tool. It currently does not support in-line text editing. Any text you place in here will be lost. If you need to comment on your tab, please use the "Tab Notes" section located below.