liars lead guitar

(/) Slide Up  (\) Slide Down  (h) Hammer On  (p) Pull Off  (b) Bend (r) Release (v) Vibrato


E|----------------------------------------------------------------------------------------
B|-------------------------------------------5--------5-----------5--------5-----------5--
G|--7--7--5-----7--7--5--7b7--7--7--5--------5--------5-----------5--------5-----------5--
D|-----------7-------------------------7--7-----7--7-----5--5--7-----7--7-----5--5--7-----
A|----------------------------------------------------------------------------------------
E|----------------------------------------------------------------------------------------



E|-------------------------------------------------------------------------------------------
B|--------5-----------5--------5-------------------------------------------------------------
G|--------5-----------5--------5------------------------5---------------------7--7--7--5-----
D|--7--7-----5--5--7-----7--7-----5--5-------------5h7-----7-------------5h7--------------7--
A|--------------------------------------3--3--5h7-------------3--3--5h7----------------------
E|-------------------------------------------------------------------------------------------



E|--------------
B|--------------
G|--7--7--5-----
D|-----------7--
A|--------------
E|--------------



E|--------------------------------------------------------------------------
B|-----5--------5-----------5--------5-----------------5--------5-----------
G|-----5--------5-----------5--------5--7--8--7--8-----5--------5-----------
D|--7-----7--7-----5--5--7-----7--7-----------------7-----7--7-----5--5-----
A|--------------------------------------------------------------------------
E|--------------------------------------------------------------------------
http://www.guitartabcreator.com
Guitar Tab Creator is intended to store guitar tab created through the tool. It currently does not support in-line text editing. Any text you place in here will be lost. If you need to comment on your tab, please use the "Tab Notes" section located below.