feeling cornered

(/) Slide Up  (\) Slide Down  (h) Hammer On  (p) Pull Off  (b) Bend (r) Release (v) Vibrato


E|------------------------------------------------------------------------
B|------------------------------------------------------------------------
G|------------------------------------------------------------------------
D|------------------------------------------------------------------------
A|-----7--5--5--5-----5--5--5--7-----5-------------5h7-----5--------------
E|--5--------------7--------------5-----7--7--5h7-------5-----7--7--7--7--



E|------------------------------------------------------------------------------------------
B|------------------------------------------------------------------------------------------
G|--5-----5-----5-----5--5--5--5--7--7--5h7p5-----5-----5--5--------------------------------
D|-----7-----7-----7---------------------------7-----7--------7--5--5--5--5--5--5--7--7--7--
A|------------------------------------------------------------------------------------------
E|------------------------------------------------------------------------------------------



E|--------------------------------------------------------------------------------------------
B|--------------------------------------------------------------------------------------------
G|-------------------------------------------------------------------------------------9--12--
D|--9p7-----------------------------------------------------------------7-----9-----7---------
A|-------9--------12----------------------------14\12\9\7\5--7--5--7/9-----9-----------0--0---
E|----------7--5------7--7\5--5\2--12\10/12\10-----------------------------------5--5---------
http://www.guitartabcreator.com
Guitar Tab Creator is intended to store guitar tab created through the tool. It currently does not support in-line text editing. Any text you place in here will be lost. If you need to comment on your tab, please use the "Tab Notes" section located below.