burn them in their house #2

(/) Slide Up  (\) Slide Down  (h) Hammer On  (p) Pull Off  (b) Bend (r) Release (v) Vibrato


E|-----------------------------------------------------------------------------------------
B|-----------------------------------------------------------------------------------------
G|--11--11--11--11----------11--11--11--11------------------11--11--11--11----------11-----
D|------------------11--11------------------11--11--11--11------------------11--11---------
A|--0---0---0---0---0---0---0---0---0---0---0---0---0---0---0---0---0---0---0---0---0------
E|-----------------------------------------------------------------------------------------



E|---------------------------------------------------------------------------------------
B|------------------------------------------------------------8--8--8--8-----------------
G|--11--11--11---------------------------------------9--9--9--9--9--9--9-----------9--9--
D|--------------11--11--11--11-----------------------------------------------------------
A|--0---0---0---0---0---0---0---7--7--7--7--7--7--7--7--7--7--7--7--7--7--7--7--7--7--7--
E|--------------------------0---0--0--0--0--0--0--0--0--0--0--0--0--0--0--0--0--0--0--0--



E|----------------------------------------------------------------------------------------------
B|--------10--10--10--10--10--10--10--10--------------------------------------------------------
G|--9--9--9---9---9---9---9---9---9---9---9--9--9--9--------9--9--9--9--------------9--9--9--9--
D|----------------------------------------------------9--9--------------9--9--9--9--------------
A|--7--7--7---7---7---7---7---7---7---7---0--0--0--0--0--0--0--0--0--0--0--0--0--0--0--0--0--0--
E|--0--0--0---0---0---0---0---0---0---0---------------------------------------------------------



E|-----------------------------------------------------------------------------------
B|--------------------------------8--8--8--8--8--8--8--8--8--8--8--8--8--8--8--8-----
G|--------9--9--9--9--------------0--0--0--0--0--0--0--0--0--0--0--0--0--0--0--0-----
D|--9--9--------------9--9--9--9--0--0--0--0--0--0--0--0--0--0--0--0--0--0--0--0-----
A|--0--0--0--0--0--0--0--0--0--0-----------------------------------------------------
E|-----------------------------------------------------------------------------------



E|----------------------------------------------------------------------------------------------
B|--12--12--12--12--12--12--12--12--12--12--12--12--12--12--12--12--15--15--15--15--15--15--15--
G|--0---0---0---0---0---0---0---0---0---0---0---0---0---0---0---0---0---0---0---0---0---0---0---
D|--0---0---0---0---0---0---0---0---0---0---0---0---0---0---0---0---0---0---0---0---0---0---0---
A|----------------------------------------------------------------------------------------------
E|----------------------------------------------------------------------------------------------



E|-----------------------------------------------------------------------------------------
B|--15--15--15--15--15--15--15--15--15--17--17--17--17--17--17--17--17--17--17--17--17-----
G|--0---0---0---0---0---0---0---0---0---0---0---0---0---0---0---0---0---0---0---0---0------
D|--0---0---0---0---0---0---0---0---0---0---0---0---0---0---0---0---0---0---0---0---0------
A|-----------------------------------------------------------------------------------------
E|-----------------------------------------------------------------------------------------



E|----------------------9---
B|--17--17--17--17--17--9---
G|--0---0---0---0---0---10--
D|--0---0---0---0---0---11--
A|----------------------11--
E|----------------------9---
http://www.guitartabcreator.com
Guitar Tab Creator is intended to store guitar tab created through the tool. It currently does not support in-line text editing. Any text you place in here will be lost. If you need to comment on your tab, please use the "Tab Notes" section located below.