burn them in their house

(/) Slide Up  (\) Slide Down  (h) Hammer On  (p) Pull Off  (b) Bend (r) Release (v) Vibrato

E|---------------------------------------------------------------------------
B|---------------------------------------------------------------------------
G|----------------------11--9---------------------------------11--9----------
D|-----7-----7-----------------11------------7-----7-----------------11------
A|--9-----9-----7--7h9-------------12--9--9-----9-----7--7h9-------------12--
E|---------------------------------------------------------------------------



E|------------------------------------------------------------------------------------------
B|------------------------------------------------------------------------------------------
G|--11--11--11--11----------11--11--11--11------------------11--11--11--11----------11--11--
D|------------------11--11------------------11--11--11--11------------------11--11----------
A|--0---0---0---0---0---0---0---0---0---0---0---0---0---0---0---0---0---0---0---0---0---0---
E|------------------------------------------------------------------------------------------



E|--------------------------------------------------------------------------------------------
B|-----------------------------------------------------8--8--8--8-----------------------------
G|--11--11---------------------------------9--9--9--9--9--9--9--9-----------------------9--9--
D|----------11--11--11--11--------------------------------------------------------------------
A|--0---0---0---0---0---0---7--7--7--7--7--7--7--7--7--7--7--7--7--7--7--7--7--7--7--7--7--7--
E|----------------------0---0--0--0--0--0--0--0--0--0--0--0--0--0--0--0--0--0--0--0--0--0--0--



E|-----
B|-----
G|-----
D|-----
A|--0--
E|--0--



E|--
B|--
G|--
D|--
A|--
E|--
http://www.guitartabcreator.com
Guitar Tab Creator is intended to store guitar tab created through the tool. It currently does not support in-line text editing. Any text you place in here will be lost. If you need to comment on your tab, please use the "Tab Notes" section located below.