23 Go In To End

(/) Slide Up  (\) Slide Down  (h) Hammer On  (p) Pull Off  (b) Bend (r) Release (v) Vibrato


E|-----------------------------------
B|---------4---------------4---------
G|--10--5-----3-----10--5-----3--10--
D|---------------3-------------------
A|-----------------------------------
E|-----------------------------------



E|---------------------------------------------
B|--13----------11------13----------11---------
G|------12----------10------12----------10-----
D|----------13------------------13-------------
A|---------------------------------------------
E|---------------------------------------------
http://www.guitartabcreator.com
Guitar Tab Creator is intended to store guitar tab created through the tool. It currently does not support in-line text editing. Any text you place in here will be lost. If you need to comment on your tab, please use the "Tab Notes" section located below.