Lie In Our Graves

(/) Slide Up  (\) Slide Down  (h) Hammer On  (p) Pull Off  (b) Bend (r) Release (v) Vibrato

(W|WW) Whole (H|HH) Half (Q|QQ) Quarter (E|EE) 8th (S|SS) 16th (T|TT) 32nd (X|XX) 64th


VERSE 1

E|--2--2--2--------------------------3--3--3--
B|--3--3--3-----------------2--------3--3--3--
G|--2--2--2--------------------4-----0--0--0--
D|-----------------0--2--4-----------0--0--0--
A|-----------4--2--------------------2--2--2--
E|--------------------------------3--3--3--3--


CHORUS

E|--2--2--2------------------------------------------
B|--3--3--3-----------------1--1---------------------
G|--2--2--2--------2--------2--2--0h2p0--0-----------
D|-----------0--4-----4--0--2--2------------4--2--4--
A|---------------------------------------------------
E|---------------------------------------------------


(CHORUS BREAKUP)


E|--2--2--------------------3--3--3--
B|--3--3--------1--0--------3--3--3--
G|--2--2--------1--1--2--2--0--0--0--
D|--------------2--2--2--2--0--0--0--
A|--------4--2--2--2--2--2--2--2--2--
E|--------------------------3--3--3--


ALT CHORUS (TIM)

E|--2--2--2-------------5------------0--3h5p3--2--0--2--
B|--3--3--3--3--3--3/7-----7p5\3--1--1------------------
G|--2--2--2-----------------------2--2------------------
D|--------------------------------2--2------------------
A|------------------------------------------------------
E|------------------------------------------------------


ALT CHORUS 2(TIM)


E|--2--2--2---------------------------------------------
B|--3--3--3-----------------------1--1------------------
G|--2--2--2-----------------------2--2------------------
D|-----0--------------------------2--2------------------
A|----------------------0---------------3h5h3--2--0--2--
E|-----------0--0--0/4-----4p2p0------------------------


INTERLUDE


E|--------------------------------2--3--3--3--2--2--
B|--------------------------------2--3--3--3--2--2--
G|-----------------------------2--4--3--3--3--2--2--
D|-------------------0---------2--4--5--5--5--4--4--
A|--5-7--7--7--5--5--7--7--11--2--2--3--3--3--2--2--
E|--3/5--5--5--3--3--5--5--9------2--3--3--3--2--2--


INTERLUDE 2


E|--2--2--2--4--4--4--2--2--2--3--3-----
B|--3--3--3--4--4--4--2--2--2--3--3-----
G|--2--2--2--6--6--6--4--4--4--0--0--2--
D|-----------6--6--6--4--4--4--0--0--2--
A|-----------4--4--4--2--2--2--2--2--2--
E|-----------4--4--4--2--2--2--3--3-----


BREAKDOWN BAND JAM
Chord Pattern
xxxxxxxx xxxxxxxx xxxxxxxx xx x

E|----------------------------------------------------------------------------
B|----------------------------------------------------------------------------
G|--12--7--6--2--4--12--7--6--4--11--9--7--4--6--11--9--7--4--6--12--7--6--4--
D|----------------------------------------------------------------------0-----
A|--12--7--5--2--3--12--7--5--3--10--9--7--3--5--10--9--7--3--5--12--7--5--3--
E|----------------------------------------------------------------------------


OUTRO

E|--------
B|--------
G|--1--2--
D|--2--2--
A|--2--2--
E|--------
Guitar Tab Creator is intended to store guitar tab created through the tool. It currently does not support in-line text editing. Any text you place in here will be lost. If you need to comment on your tab, please use the "Tab Notes" section located below.