I-95 by Mint Julep

(/) Slide Up  (\) Slide Down  (h) Hammer On  (p) Pull Off  (b) Bend (r) Release (v) Vibrato

Stave 1:

E|-----------------------------------------------12-----------------------------------------
B|--10------10--12--12b13--12b13--12b13--12----------14--15--14--12--10------12b13--10------
G|------11---------------------------------------------------------------11-------------11--
D|------------------------------------------------------------------------------------------
A|------------------------------------------------------------------------------------------
E|------------------------------------------------------------------------------------------

Stave 2:

E|---------------------------------------------
B|---------------------------------------------
G|--9----9--9--11--9---------------------------
D|--------------------11--9--7--7--7--7--9/11--
A|---------------------------------------------
E|---------------------------------------------

Stave 3:

E|--------------0-----------------------0-----------------------0-----------------------0--
B|-----------0-----0-----------------0-----0-----------------0-----0-----------------3-----
G|--------2-----------2-----------1-----------1-----------0-----------0-----------2--------
D|-----2-----------------2-----2-----------------2-----2-----------------2-----4-----------
A|--0-----------------------0-----------------------0-----------------------0--------------
E|-----------------------------------------------------------------------------------------

Stave 4:

E|--------------
B|--3-----------
G|-----2--------
D|--------4-----
A|-----------0--
E|--------------

Stave 5:

E|--3--2--0--
B|--3--3--0--
G|--0--2--2--
D|--0--0--2--
A|--2-----0--
E|--3--------

Stave 6:

E|--
B|--
G|--
D|--
A|--
E|--

Stave 7:

E|-------------------------------------------------------------------------------------------
B|--------------------------------------10------10--12p10------10------10--12--12b13--12b13--
G|-------------------------9--9--9--11------11-------------11------11------------------------
D|--5--7--5--7----7--7/11--------------------------------------------------------------------
A|-------------------------------------------------------------------------------------------
E|-------------------------------------------------------------------------------------------

http://www.guitartabcreator.com
Guitar Tab Creator is intended to store guitar tab created through the tool. It currently does not support in-line text editing. Any text you place in here will be lost. If you need to comment on your tab, please use the "Tab Notes" section located below.