Scale runs/Practice

(/) Slide Up  (\) Slide Down  (h) Hammer On  (p) Pull Off  (b) Bend (r) Release (v) Vibrato


E|----------------------------10--13\12--9------
B|------------------------11----------------10--
G|-----------------9--12------------------------
D|-------------10-------------------------------
A|------8--12-----------------------------------
E|--10------------------------------------------



E|--------------------------------------------------------------------------------------------------
B|--------------------------------------------------------------------------------------------------
G|--15--14--12--------------15--14--12--------------14--12--10--------------14--12--10--------------
D|--------------15--14--12--------------15--14--12--------------14--12--11--------------14--12--11--
A|--------------------------------------------------------------------------------------------------
E|--------------------------------------------------------------------------------------------------



E|----------------------------------------
B|----------------------------------------
G|----------------------------------------
D|------11--12--14--12--11--9--11--11/12--
A|--12------------------------------------
E|----------------------------------------
http://www.guitartabcreator.com
Guitar Tab Creator is intended to store guitar tab created through the tool. It currently does not support in-line text editing. Any text you place in here will be lost. If you need to comment on your tab, please use the "Tab Notes" section located below.