Shut the Fuck Up

(/) Slide Up  (\) Slide Down  (h) Hammer On  (p) Pull Off  (b) Bend (r) Release (v) Vibrato


E|---------------------------------------------|--
B|---------------------------------------------|--
G|-----------------2---------------------------|--
D|----2------------2--------0------------------|--
A|----2------------0--------2--------0h2--2p0--|--
E|----0---------------------3------------------|--



E|--0--------------0-------------------|--
B|--0--------------2-------------------|--
G|--0--------------2-------------------|--
D|--0--------------2--------2----------|--
A|--2--------------0--------2----------|--
E|--3-----------------------0----------|--
http://www.guitartabcreator.com
Guitar Tab Creator is intended to store guitar tab created through the tool. It currently does not support in-line text editing. Any text you place in here will be lost. If you need to comment on your tab, please use the "Tab Notes" section located below.