Open and Empty

(/) Slide Up  (\) Slide Down  (h) Hammer On  (p) Pull Off  (b) Bend (r) Release (v) Vibrato


E|------------------------------------------------------------------------------------------------
B|-------------------------------------------------------------------------9------9----------9b---
G|-------------9--11-----------------------------------9--11------------------11-----11--11-------
D|---------13------------------13--9--11-----------13------------------13-------------------------
A|-----11------------------11------------------11------------------11-----------------------------
E|--9-------------------9-------------------9-------------------9---------------------------------



E|--------------------------------------
B|--------------------------------------
G|--------------------------------------
D|--13--13--13--13------13--13--13--11--
A|--11--11--11--11------11--11--11--9---
E|--9---9---9---0-------9---9---9---7---
http://www.guitartabcreator.com
Guitar Tab Creator is intended to store guitar tab created through the tool. It currently does not support in-line text editing. Any text you place in here will be lost. If you need to comment on your tab, please use the "Tab Notes" section located below.