Leave It

(/) Slide Up  (\) Slide Down  (h) Hammer On  (p) Pull Off  (b) Bend (r) Release (v) Vibrato


E|------------------------------------------------------|--
B|------------------------------------------------------|--
G|------------------------------------------------------|--
D|--11b12r11--9--7--4/7--7----11b12r11--9--7--4/7--9----|--
A|-----------------------5------------------------------|--
E|------------------------------------------------------|--



E|------------------------------------------------------------|--
B|------------------------------------------------------------|--
G|------------------------------------------------------------|--
D|------------------------------------------------------------|--
A|--5--7--7--7----7--5h7-----7--5--7--7--7----5h7--7--5--7----|--
E|------------------------5--5---------------------5--3--5----|--
http://www.guitartabcreator.com
Guitar Tab Creator is intended to store guitar tab created through the tool. It currently does not support in-line text editing. Any text you place in here will be lost. If you need to comment on your tab, please use the "Tab Notes" section located below.