I'm On My Way

(/) Slide Up  (\) Slide Down  (h) Hammer On  (p) Pull Off  (b) Bend (r) Release (v) Vibrato

E|-----------------------------------------------------|--
B|-----------------------------------------------------|--
G|-----------------------------------------------------|--
D|-------------4-------------4-------------4--4--5--4--|--
A|-------------2-------------2-------------2--2--3--2--|--
E|--0--0--0h3-----0--0--0h3-----0--0--0h3--------------|--



E|-----------------------------------------------------|--
B|-----------------------------------------------------|--
G|-----------------------------------------------------|--
D|-------------4-------------4-------------4--5--5--4--|--
A|-------------2-------------2-------------2--3--3--2--|--
E|--0--0--0h3-----0--0--0h3-----0--0--0h3--------------|--



E|--------------------------------------------------|--
B|--------------------------------------------------|--
G|--5--5--5--5--------------7--7--7--7--------------|--
D|--5--5--5--5--5--5--5--5--7--7--7--7--7--7--7--7--|--
A|--3--3--3--3--5--5--5--5--5--5--5--5--7--7--7--7--|--
E|--3--3--3--3--3--3--3--3--5--5--5--5--5--5--5--5--|--



E|--------------------------------------------------|--
B|--------------------------------------------------|--
G|--5--5--5--5--------------7--7--7--7--4--4--4--4--|--
D|--5--5--5--5--5--5--5--5--7--7--7--7--4--4--4--4--|--
A|--3--3--3--5--5--5--5--5--5--5--5--5--2--2--2--2--|--
E|--3--3--3--3--3--3--3--3--5--5--5--5--------------|--
http://www.guitartabcreator.com
Guitar Tab Creator is intended to store guitar tab created through the tool. It currently does not support in-line text editing. Any text you place in here will be lost. If you need to comment on your tab, please use the "Tab Notes" section located below.