Forests Are Bitchin', dude

(/) Slide Up  (\) Slide Down  (h) Hammer On  (p) Pull Off  (b) Bend (r) Release (v) Vibrato


E|-----------------------------------------------------------------------------------------
B|-----------------------------------------------------------------------------------------
G|-----------------------------------------------------------------------------------------
D|--------5-----7-----5-----------5-----7-----5-----------5-----7-----5-----------3--3--3--
A|-----7-----------7-----7-----7-----------7-----7-----7-----------7-----7-----5-----5--5--
E|--5--------5--------------5--------5--------------5--------5--------------3--------3--3--



E|--------------------
B|--------------------
G|--------------------
D|--3-----3--2-----2--
A|--5--5-----3--3-----
E|--3--------1--------



E|--------------------------------------------------
B|--------------------------------------------------
G|--------------------------------------------------
D|--2--2--2--2--3--3--3--3--4--4--4--4--2--2--2--2--
A|--3--3--3--3--5--5--5--5--5--5--5--5--3--3--3--3--
E|--1--1--1--1--3--3--3--3--5--5--5--5--3--3--3--3--



E|-----------------------
B|-----------------------
G|-----------------------
D|--2--2--2--2--2--2--0--
A|--2--2--2--2--3--3--2--
E|--0--0--0--0--3--3--2--
http://www.guitartabcreator.com
Guitar Tab Creator is intended to store guitar tab created through the tool. It currently does not support in-line text editing. Any text you place in here will be lost. If you need to comment on your tab, please use the "Tab Notes" section located below.