Don't Change Yourself Yet

(/) Slide Up  (\) Slide Down  (h) Hammer On  (p) Pull Off  (b) Bend (r) Release (v) Vibrato


E|--------|--
B|--0--0--|--
G|--2--1--|--
D|--0--2--|--
A|--2--0--|--
E|-----2--|--



E|--------|--
B|--------|--
G|--------|--
D|--------|--
A|--2--0--|--
E|--3--2--|--
http://www.guitartabcreator.com
Guitar Tab Creator is intended to store guitar tab created through the tool. It currently does not support in-line text editing. Any text you place in here will be lost. If you need to comment on your tab, please use the "Tab Notes" section located below.