Crazy-Holes Out Front

(/) Slide Up  (\) Slide Down  (h) Hammer On  (p) Pull Off  (b) Bend (r) Release (v) Vibrato


E|---------------------------------------------------------
B|--5--5--5--3----3--3-------------------------------------
G|--4--4--4--2----2--2-------------------------------------
D|----------------------2h4--4--2h4--4--2h4--4--2h4--4--4--
A|---------------------------------------------------------
E|---------------------------------------------------------



E|----------------------------------------------------------------
B|--5--5--7--3----3--3--------------------------------------------
G|--4--4--6--2----2--2--------------------------------------------
D|----------------------4p2--2--2h4--4--2h4--4--2h4--4--2h4--2p0--
A|----------------------------------------------------------------
E|----------------------------------------------------------------
http://www.guitartabcreator.com
Guitar Tab Creator is intended to store guitar tab created through the tool. It currently does not support in-line text editing. Any text you place in here will be lost. If you need to comment on your tab, please use the "Tab Notes" section located below.