Black Suit

(/) Slide Up  (\) Slide Down  (h) Hammer On  (p) Pull Off  (b) Bend (r) Release (v) Vibrato

E|-----------------------------------------|--
B|-----------------------------------------|--
G|-----------------------------------------|--
D|--7b8-----------------7b8----------------|--
A|-------0--3--0--3--0-------0--3--0--3/5--|--
E|-----------------------------------------|--



E|--------------------------------------|--
B|--------------------------------------|--
G|--------------------------------------|--
D|--------------------------------------|--
A|--0--3--0--3--5--------0--3--0--3--0--|--
E|--------------------------------------|--



E|------------------------------------------|--
B|------------------------------------------|--
G|--5--5--5--5-----------9--7---------------|--
D|--5--5--5--5--7--7--7--9--7---------------|--
A|--3--3--3--3--7--7--7--7--5---------------|--
E|--------------5--5--5--7--5--0--2--3--2v--|--



E|-----------------------------------|--
B|-----------------------------------|--
G|--5--5--5--5-----------9--7-----4--|--
D|--5--5--5--5--7--7--7--9--7--0--4--|--
A|--3--3--3--3--7--7--7--7--5--0--2--|--
E|--------------5--5--5--7--5--0-----|--
http://www.guitartabcreator.com
Guitar Tab Creator is intended to store guitar tab created through the tool. It currently does not support in-line text editing. Any text you place in here will be lost. If you need to comment on your tab, please use the "Tab Notes" section located below.