Causes Solo

(/) Slide Up  (\) Slide Down  (h) Hammer On  (p) Pull Off  (b) Bend (r) Release (v) Vibrato

E|--------------------------------12p10h12h13p12p10-----
B|-------------10/13------------------------------------
G|--10----------------10------14------------------------
D|------12--8-------------12----------------------------
A|------------------------------------------------------
E|------------------------------------------------------



E|--17p10h13--20p10h13--17p10h13--15p10h13--17p13p12p10---------------20p17p15p13---------------
B|-------------------------------------------------------17p13p11p10---------------20p17p15p13--
G|----------------------------------------------------------------------------------------------
D|----------------------------------------------------------------------------------------------
A|----------------------------------------------------------------------------------------------
E|----------------------------------------------------------------------------------------------



E|--21p17p15p13---------------20p17p15p13---------------21p17p15p13--20p15p13p12--17p13p12p10--
B|---------------21p17p15p13---------------20p17p15p13-----------------------------------------
G|---------------------------------------------------------------------------------------------
D|---------------------------------------------------------------------------------------------
A|---------------------------------------------------------------------------------------------
E|---------------------------------------------------------------------------------------------



E|--12p10h12p10--12/17--21p17p13/15--20p15----------10h12h13p12h13/17----------13h15h17p15h17/20--
B|----------------------------------------------11-------------------------15---------------------
G|------------------------------------------10-------------------------14-------------------------
D|------------------------------------------------------------------------------------------------
A|------------------------------------------------------------------------------------------------
E|------------------------------------------------------------------------------------------------



E|--20--20--20--20--20--20--20--20--20--20--20--20--20--20--20--20--17--17--17--17--17--17--17--17--
B|--------------------------------------------------------------------------------------------------
G|--------------------------------------------------------------------------------------------------
D|--------------------------------------------------------------------------------------------------
A|--------------------------------------------------------------------------------------------------
E|--------------------------------------------------------------------------------------------------



E|--------------13----------------------17----------15--------------17----------20-------------
B|--15--13--15------15--13--15--13----------15----------13------13------15--13------18--17-----
G|----------------------------------14----------14----------12---------------------------------
D|---------------------------------------------------------------------------------------------
A|---------------------------------------------------------------------------------------------
E|---------------------------------------------------------------------------------------------



E|--17----------20----------17----------20-------------------------------------------------
B|------15--13------18--17------15--13------18--17--------------------------13/17--17b18v--
G|--------------------------------------------------14------------------12-----------------
D|------------------------------------------------------15------14--15---------------------
A|----------------------------------------------------------12-----------------------------
E|-----------------------------------------------------------------------------------------
http://www.guitartabcreator.com
Guitar Tab Creator is intended to store guitar tab created through the tool. It currently does not support in-line text editing. Any text you place in here will be lost. If you need to comment on your tab, please use the "Tab Notes" section located below.