uhhh

(/) Slide Up  (\) Slide Down  (h) Hammer On  (p) Pull Off  (b) Bend (r) Release (v) Vibrato
E|-----------------------------------
B|-----------------------------------
G|-----------------------------------
D|--------------------------------7--
A|--------------5--6--6--6--7/10-----
E|--5--5--5--8-----------------------



E|----------------------------------------------------------------------------------------------------
B|----------------------------------------------------------------------------------------------------
G|--------5-----5--------5-----5----------------------------------------7-----7-----------------------
D|--7--7-----7-----7--7-----7-----------5-----5--------5-----5--7/9--9-----9--------------------------
A|--------------------------------7--7-----7-----7--7-----7-------------------------------------------
E|----------------------------------------------------------------------------------------------5-----



E|-----------------------------
B|-----------------------------
G|-----------------------------
D|--------4-----------6--------
A|-----5--------4--7--------6--
E|-----------5-----------7-----
http://www.guitartabcreator.com
Guitar Tab Creator is intended to store guitar tab created through the tool. It currently does not support in-line text editing. Any text you place in here will be lost. If you need to comment on your tab, please use the "Tab Notes" section located below.