Vivacious

(/) Slide Up  (\) Slide Down  (h) Hammer On  (p) Pull Off  (b) Bend (r) Release (v) Vibrato

Vivacious
CHAD

Intro
e|--------------------------------| e|-------------------------------|
B|--------------------------------| B|-------------------------------|
G|-----7----11----9----12----12---| G|-------------------------------|
D|--00---00----00---00----00------| [x3] D|-----7----11----9----14^b------|
A|--------------------------------| A|--00---00----00---00-----------|
D|--------------------------------| D|-------------------------------|
The '0's are palm muted here, in the main riff they are not!'

Main Riff
e|------------------------------------| e|----------------------------------|
B|------------------------------------| B|----------------------------------|
G|----7----11-----9---9---12-11-9/7---| G|----7-----11-----9---9---14-14----|
D|--0---00----0~----0-----------------| [x3] D|--0----00----0~----0-----0--0-----|
A|--0---------------------------------| A|--0-------------------------------|
D|--0---------------------------------| D|--0-------------------------------|

e|------------------------------------| e|----------------------------------|
B|------------------------------------| B|----------------------------------|
G|----7----11-----9---9---12-11-9/7---| G|----7-----11-----9---9---14-14----|
D|--0---00----0~----0-----------------| [x3] D|--0----00----0~----0-----0--0-----|
A|--0---------------------------------| A|--0-------------------------------|
D|--0---------------------------------| D|--0-------------------------------|

Verse
e|------------------------------------------------------------------------------------|
B|------------------------------------------------------------------------------------|
G|--7~------7-11~------11-9~-------9-12-12-12-12-12-12-12-12-14-14-14-14-14-14-14-14--|
D|--0~------0-0-~------0--0~-------0-0--0--0--0--0--0--0--0--0--0--0--0--0--0--0--0---| [x2]
A|------------------------------------------------------------------------------------|
D|------------------------------------------------------------------------------------|

Main Riff
e|------------------------------------| e|----------------------------------|
B|------------------------------------| B|----------------------------------|
G|----7----11-----9---9---12-11-9/7---| G|----7-----11-----9---9---14-14----|
D|--0---00----0~----0-----------------| [x3] D|--0----00----0~----0-----0--0-----|
A|--0---------------------------------| A|--0-------------------------------|
D|--0---------------------------------| D|--0-------------------------------|

Chorus
e|-------------------------------------------|
B|-------------------------------------------|
G|----------------------7-776777-7776777-----|
D|--3-333333--5-555555--7-777777-7777777-----| [x4]
A|--3-333333--5-555555--5-555555-5555555-----|
D|--3-333333--5-555555-----------------------|

Main Riff
e|------------------------------------| e|----------------------------------|
B|------------------------------------| B|----------------------------------|
G|----7----11-----9---9---12-11-9/7---| G|----7-----11-----9---9---14-14----|
D|--0---00----0~----0-----------------| [x3] D|--0----00----0~----0-----0--0-----|
A|--0---------------------------------| A|--0-------------------------------|
D|--0---------------------------------| D|--0-------------------------------|

Verse 2
e|------------------------------------------------------------------------------------|
B|------------------------------------------------------------------------------------|
G|--7~------7-11~------11-9~-------9-12-12-12-12-12-12-12-12-14-14-14-14-14-14-14-14--|
D|--0~------0-0-~------0--0~-------0-0--0--0--0--0--0--0--0--0--0--0--0--0--0--0--0---| [x2]
A|------------------------------------------------------------------------------------|
D|------------------------------------------------------------------------------------|

Solo
e|------------------------------------------------|
B|--/15--15-15-15-15-15--15-17--17-17--17-17-17---|
G|--/14--14-14-14-14-14--14-16--16-16--16-16-16---|
D|--/0---0--0--0--0--0---0--0---0--0---0--0--0----| [x3]
A|------------------------------------------------|
D|------------------------------------------------|

e|------------------------------------------19-----------|
B|--/15--15-15-15-15-15--15-17-----17----17----17----17--|
G|--/14--14-14-14-14-14--14-16--------16----------16-----|
D|--/0---0--0--0--0--0---0--0----------------------------|
A|-------------------------------------------------------|
D|-------------------------------------------------------|

e|-------------10--8-7--7h8p7---------------10--8--7--7h8p8------|
B|--/8--8-7-88-----------------8--8--8-7-88------------------8---|
G|--/7----------------------------7------------------------------|
D|--/0----------------------------0------------------------------|
A|---------------------------------------------------------------|
D|---------------------------------------------------------------|

e|------------------12--10-9--9h10p9---------------------12--121212-12-10-9---|
B|--/10--10-12-1010------------------10--10-10-12--1010-----------------------|
G|--/9-----------------------------------9------------------------------------|
D|--/0-----------------------------------0------------------------------------|
A|----------------------------------------------------------------------------|
D|----------------------------------------------------------------------------|

Chorus
e|-------------------------------------------|
B|-------------------------------------------|
G|----------------------7-776777-7776777-----|
D|--3-333333--5-555555--7-777777-7777777-----| [x4]
A|--3-333333--5-555555--5-555555-5555555-----|
D|--3-333333--5-555555-----------------------|


Main Riff/Outro
e|------------------------------------| e|-------------------------------------|
B|------------------------------------| B|-------------------------------------|
G|----7----11-----9---9---12-11-9/7---| G|----7-----11-----9---9---14-14---7~~-|
D|--0---00----0~----0-----------------| [x3] D|--0----00----0~----0-----0--0----0~~-|
A|--0---------------------------------| A|--0----------------------------------|
D|--0---------------------------------| D|--0----------------------------------|



http://www.guitartabcreator.com
Guitar Tab Creator is intended to store guitar tab created through the tool. It currently does not support in-line text editing. Any text you place in here will be lost. If you need to comment on your tab, please use the "Tab Notes" section located below.