UK Girl

(/) Slide Up  (\) Slide Down  (h) Hammer On  (p) Pull Off  (b) Bend (r) Release (v) Vibrato

UK Girl
CHAD

Intro/Pre-Verse
e|-----------------------------|
B|-----------------------------|
G|--5-55--------7-77-----------|
D|--5-55--7777--7-77--5/7-7----| [x4]
A|--3-33--7777--5-55--5/7-7----|
E|--------5555--------3/5-5----|

Verse
e|-------------------------------------------------------------------------------------------|
B|-------------------------------------------------------------------------------------------|
G|--5-55--------7-77----------------------------5-55--------7-77-----------------------------|
D|--5-55--7777--7-77--7777--5-555555--7-777777--5-55--7777--7-77--7777--5-555555--7-777777---|
A|--3-33--7777--5-55--7777--5-555555--7-777777--3-33--7777--5-55--7777--5-555555--7-777777---|
E|--------5555--------5555--3-333333--5-555555--------5555--------5555--3-333333--5-555555---|

e|--------------------------------------------------------------|
B|--------------------------------------------------------------|
G|--------------------------------------------------------------|
D|--5-555555--7-777777--5-5555555555555555--7-7777777777777777--|
A|--5-555555--7-777777--5-5555555555555555--7-7777777777777777--|
E|--3-333333--5-555555--3-3333333333333333--5-5555555555555555--|

Chorus
e|----------------------------------------------------|
B|----------------------------------------------------|
G|--1010101010101010------------99999999--------------|
D|--1010101010101010--77777777--99999999--77777777----|
A|--8-8-8-8-8-8-8-8---77777777--77777777--77777777----| [x4]
E|--------------------55555555------------55555555----|

Pre-Verse
e|-----------------------------|
B|-----------------------------|
G|--5-55--------7-77-----------|
D|--5-55--7777--7-77--5/7-7----| [x2]
A|--3-33--7777--5-55--5/7-7----|
E|--------5555--------3/5-5----|

Verse 2
e|-------------------------------------------------------------------------------------------|
B|-------------------------------------------------------------------------------------------|
G|--5-55--------7-77----------------------------5-55--------7-77-----------------------------|
D|--5-55--7777--7-77--7777--5-555555--7-777777--5-55--7777--7-77--7777--5-555555--7-777777---|
A|--3-33--7777--5-55--7777--5-555555--7-777777--3-33--7777--5-55--7777--5-555555--7-777777---|
E|--------5555--------5555--3-333333--5-555555--------5555--------5555--3-333333--5-555555---|

e|--------------------------------------------------------------|
B|--------------------------------------------------------------|
G|--------------------------------------------------------------|
D|--5-555555--7-777777--5-5555555555555555--7-7777777777777777--|
A|--5-555555--7-777777--5-5555555555555555--7-7777777777777777--|
E|--3-333333--5-555555--3-3333333333333333--5-5555555555555555--|

Interlude
e|----------------------------------------------------------------------------------|
B|----------------------------------------------------------------------------------|
G|--7-777777------------5-555555------------7-777777------------5-555555--5-555555--|
D|--7-777777--7-777777--5-555555--7-777777--7-777777--7-777777--5-555555--5-555555--|
A|--5-555555--7-777777--3-333333--7-777777--5-555555--7-777777--3-333333--3-333333--|
E|------------5-555555------------5-555555------------5-555555----------------------|

Verse 3
e|-------------------------------------------------------------------------------------------|
B|-------------------------------------------------------------------------------------------|
G|--5-55--------7-77----------------------------5-55--------7-77-----------------------------|
D|--5-55--7777--7-77--7777--5-555555--7-777777--5-55--7777--7-77--7777--5-555555--7-777777---|
A|--3-33--7777--5-55--7777--5-555555--7-777777--3-33--7777--5-55--7777--5-555555--7-777777---|
E|--------5555--------5555--3-333333--5-555555--------5555--------5555--3-333333--5-555555---|

e|--------------------------------------------------------------|
B|--------------------------------------------------------------|
G|--------------------------------------------------------------|
D|--5-555555--7-777777--5-5555555555555555--7-7777777777777777--|
A|--5-555555--7-777777--5-5555555555555555--7-7777777777777777--|
E|--3-333333--5-555555--3-3333333333333333--5-5555555555555555--|

Outro
e|---------------------------| e|-----------------------|
B|---------------------------| B|-----------------------|
G|--5-55--------7-77---------| G|--5-55--------7-77-----|
D|--5-55--7777--7-77--5555---| D|--5-55--7777--7-77--5--|
A|--3-33--7777--5-55--5555---| [x3] A|--3-33--7777--5-55--5--|
E|--------5555--------3333---| E|--------5555--------3--|



http://www.guitartabcreator.com
Guitar Tab Creator is intended to store guitar tab created through the tool. It currently does not support in-line text editing. Any text you place in here will be lost. If you need to comment on your tab, please use the "Tab Notes" section located below.