Simplicity

(/) Slide Up  (\) Slide Down  (h) Hammer On  (p) Pull Off  (b) Bend (r) Release (v) Vibrato

Simplicity
By: CHAD

Intro/Verse
e|---------------------------------------|
B|---------------------------------------|
G|-----0----------0--------0--------0----|
D|-------2------2---2--------2----2---2--|
A|--2---------3---------2-------0--------| [x8]
D|---------------------------------------|

Pre-Chorus
e|-----------------------------------------------------------------------------------|
B|-----------------------------------------------------------------------------------|
G|---------4--------------------5----------------------------------------------------|
D|----5-------5---5--------7-------7---7------------5------------------7-------------|
A|--5---5-------5--------7---7-------7---------3------3---3-------5------5---5-------|
D|-------------------------------------------3---3------3-------5---5------5---------|

e|----------------------------------------------------------------------------------------|
B|---------------------------------------------------------------------------8-8888888----|
G|---------4--------------------5---------------------------------------7-77-7-7777777----|
D|----5-------5---5--------7-------7---7------------5-------------------5-55-5-5555555----|
A|--5---5-------5--------7---7-------7---------3------3---3-------5-----5-55-5-5555555----|
D|-------------------------------------------3---3------3-------5---5---5-55-5-5555555----|

Chorus
e|---------------------------------------------------|
B|--000-0-000--xxx-x-xxx-----------------------------|
G|--444-4-444--555-5-555-----------------------------|
D|--555-5-555--777-7-777--333-5-555--555-7-777-------|
A|--555-5-555--777-7-777--333-3-333--555-5-555-------|
D|------------------------333-3-333--555-5-555-------|

e|-------------------------------------------------------------|
B|--000-0-000--xxx-x-xxx---------------------------8-888888----|
G|--444-4-444--555-5-555----------------------7-77-7-777777----|
D|--555-5-555--777-7-777--333-5-555--555-7-77-x-xx-x-xxxxxx----|
A|--555-5-555--777-7-777--333-3-333--555-5-55-5-55-5-555555----|
D|------------------------333-3-333--555-5-55-5-55-5-555555----|

Post-Chorus
e|----------------------------|
B|-----------------------0~~--|
G|-0-0000000000000000----0~~--|
D|-2-2222222222222222----2~~--| [x4]
A|-2-2222222222222222----3~~--|
D|----------------------------|
^Palm mute^

Vers2 2
e|---------------------------------------|
B|---------------------------------------|
G|-----0----------0--------0--------0----|
D|-------2------2---2--------2----2---2--|
A|--2---------3---------2-------0--------| [x8]
D|---------------------------------------|


Pre-Chorus
e|-----------------------------------------------------------------------------------|
B|-----------------------------------------------------------------------------------|
G|---------4--------------------5----------------------------------------------------|
D|----5-------5---5--------7-------7---7------------5------------------7-------------|
A|--5---5-------5--------7---7-------7---------3------3---3-------5------5---5-------|
D|-------------------------------------------3---3------3-------5---5------5---------|

e|----------------------------------------------------------------------------------------|
B|---------------------------------------------------------------------------8-8888888----|
G|---------4--------------------5---------------------------------------7-77-7-7777777----|
D|----5-------5---5--------7-------7---7------------5-------------------5-55-5-5555555----|
A|--5---5-------5--------7---7-------7---------3------3---3-------5-----5-55-5-5555555----|
D|-------------------------------------------3---3------3-------5---5---5-55-5-5555555----|

Chorus
e|---------------------------------------------------|
B|--000-0-000--xxx-x-xxx-----------------------------|
G|--444-4-444--555-5-555-----------------------------|
D|--555-5-555--777-7-777--333-5-555--555-7-777-------|
A|--555-5-555--777-7-777--333-3-333--555-5-555-------|
D|------------------------333-3-333--555-5-555-------|

e|-------------------------------------------------------------|
B|--000-0-000--xxx-x-xxx---------------------------8-888888----|
G|--444-4-444--555-5-555----------------------7-77-7-777777----|
D|--555-5-555--777-7-777--333-5-555--555-7-77-x-xx-x-xxxxxx----| [x2]
A|--555-5-555--777-7-777--333-3-333--555-5-55-5-55-5-555555----|
D|------------------------333-3-333--555-5-55-5-55-5-555555----|

Post-Chorus
e|----------------------------|
B|-----------------------0~~--|
G|-0-0000000000000000----0~~--|
D|-2-2222222222222222----2~~--| [x4]
A|-2-2222222222222222----3~~--|
D|----------------------------|
^Palm mute^

Outro
e|---------------------------------------| e|--0~-
B|---------------------------------------| B|--0~-
G|-----0----------0--------0--------0----| G|--0~-
D|-------2------2---2--------2----2---2--| D|--2~-
A|--2---------3---------2-------0--------| [x4] A|--3~-
D|---------------------------------------| D|-----








http://www.guitartabcreator.com
Guitar Tab Creator is intended to store guitar tab created through the tool. It currently does not support in-line text editing. Any text you place in here will be lost. If you need to comment on your tab, please use the "Tab Notes" section located below.