Psycho Man

(/) Slide Up  (\) Slide Down  (h) Hammer On  (p) Pull Off  (b) Bend (r) Release (v) Vibrato

Psycho Man
CHAD

Intro
e|--------------------------------------------------------------------------|
B|--------------------------------------------------------------------------|
G|--77777---77777---77777---77777---7777------7777------7777-------7777-----|
D|--77777---77777---77777---77777---7777-7~---7777-8~---7777--7~---7777-8~--|
A|--55555---55555---55555---55555---5555-7~---5555-8~---5555--7~---5555-8~--|
E|---------------------------------------5~--------6~---------5~--------6~--|

Verse
e|----------------------|
B|----------------------|
G|--7---------7---------|
D|--7-777777--7-888888--| [x7]
A|--5-777777--5-888888--|
E|----555555----666666--|

e|------------------|
B|------------------|
G|--7---------7-----|
D|--7-777777--7--8~-|
A|--5-777777--5--8~-|
E|----555555-----6~-|

Chorus
e|---------------------|
B|---------------------|
G|--7------------------|
D|--7-999999--10-99999-| [x3]
A|--5-999999--10-99999-|
E|----777777--8--77777-|

e|-------------------------------------------------------|
B|-------------------------------------------------------|
G|--7----------------------------------------------------|
D|--7-999999--10-99999-10-999999--10-999999--10-999999---|
A|--5-999999--10-99999-10-999999--10-999999--10-999999---|
E|----777777--8--77777-8--777777--8--777777--8--777777---|

e|----------------------------------------------------------------|
B|----------------------------------------------------------------|
G|--7-777777--10-1010--9-99---------------------------------------|
D|--7-777777--10-1010--9-99-10-10101010101010101010101010101010---|
A|--5-555555--8--8-8---7-77-10-10101010101010101010101010101010---|
E|--------------------------8--8-8-8-8-8-8-8-8-8-8-8-8-8-8-8-8----|

e|----------------------------------------------------------------|
B|----------------------------------------------------------------|
G|--7-777777--10-1010--9-99---------------------------------------|
D|--7-777777--10-1010--9-99--10-10101010101010101010101010101010--|
A|--5-555555--8--8-8---7-77--10-10101010101010101010101010101010--|
E|---------------------------8--8-8-8-8-8-8-8-8-8-8-8-8-8-8-8-8---|

Verse 2
e|----------------------|
B|----------------------|
G|--7---------7---------|
D|--7-777777--7-888888--| [x7]
A|--5-777777--5-888888--|
E|----555555----666666--|

e|------------------|
B|------------------|
G|--7---------7-----|
D|--7-777777--7--8~-|
A|--5-777777--5--8~-|
E|----555555-----6~-|

Chorus
e|---------------------|
B|---------------------|
G|--7------------------|
D|--7-999999--10-99999-| [x3]
A|--5-999999--10-99999-|
E|----777777--8--77777-|

e|-------------------------------------------------------|
B|-------------------------------------------------------|
G|--7----------------------------------------------------|
D|--7-999999--10-99999-10-999999--10-999999--10-999999---|
A|--5-999999--10-99999-10-999999--10-999999--10-999999---|
E|----777777--8--77777-8--777777--8--777777--8--777777---|

Break
e|----------------------------------|
B|----------------------------------|
G|--77777---77777---77777---77777---|
D|--77777---77777---77777---77777---|
A|--55555---55555---55555---55555---|
E|----------------------------------|

Outro Part 1
e|----------------------------------------------------------------|
B|----------------------------------------------------------------|
G|--7-777777--10-1010--9-99---------------------------------------|
D|--7-777777--10-1010--9-99-10-10101010101010101010101010101010---|
A|--5-555555--8--8-8---7-77-10-10101010101010101010101010101010---|
E|--------------------------8--8-8-8-8-8-8-8-8-8-8-8-8-8-8-8-8----|

e|----------------------------------------------------------------|
B|----------------------------------------------------------------|
G|--7-777777--10-1010--9-99---------------------------------------|
D|--7-777777--10-1010--9-99--10-10101010101010101010101010101010--|
A|--5-555555--8--8-8---7-77--10-10101010101010101010101010101010--|
E|---------------------------8--8-8-8-8-8-8-8-8-8-8-8-8-8-8-8-8---|

e|----------------------------------------------------------------|
B|----------------------------------------------------------------|
G|--7-777777--10-1010--9-99---------------------------------------|
D|--7-777777--10-1010--9-99-10-10101010101010101010101010101010---|
A|--5-555555--8--8-8---7-77-10-10101010101010101010101010101010---|
E|--------------------------8--8-8-8-8-8-8-8-8-8-8-8-8-8-8-8-8----|

e|----------------------------------------------------------------|
B|----------------------------------------------------------------|
G|--7-777777--10-1010--9-99---------------------------------------|
D|--7-777777--10-1010--9-99--10-10101010101010101010101010101010--|
A|--5-555555--8--8-8---7-77--10-10101010101010101010101010101010--|
E|---------------------------8--8-8-8-8-8-8-8-8-8-8-8-8-8-8-8-8---|

Outro Part 2
e|-----------------------|
B|-----------------------|
G|--7-777777--10--9------|
D|--7-777777--10--9--10--|
A|--5-555555--8---7--10--| [x4]
E|-------------------8---|






http://www.guitartabcreator.com
Guitar Tab Creator is intended to store guitar tab created through the tool. It currently does not support in-line text editing. Any text you place in here will be lost. If you need to comment on your tab, please use the "Tab Notes" section located below.