Organic

(/) Slide Up  (\) Slide Down  (h) Hammer On  (p) Pull Off  (b) Bend (r) Release (v) Vibrato

CHAD

Organic [Drop D!!]

Intro
e|--------------------------------------------------------------|
B|---------------------7------------7-----------------5---------|
G|----------2------------6------------6-----------------4-------|
D|-----2/4-----444-44------4------4-----4---------2-------2-----| [x2]
A|--------------------------------------------------------------|
D|--0---------------------------4--------------2----------------|


Verse
e|------------------------------------------------------|
B|---------------------7--------7-7777---5-5555---------|
G|----------2------------6------6-6666---4-4444---------|
D|-----2/4-----444-44------4----4-4444---2-2222---------| [x4]
A|------------------------------4-4444---2-2222---------|
D|--0---------------------------4-4444---2-2222---------|


Chorus
e|--------------------------------------(7-7777)----|
B|--------------------------------------(7-7777)----|
G|--6-66--444--------------6-66--444--9-99-9999-----|
D|--6-66--444--4-44-4444---6-66--444--9-99-9999-----| [x4]
A|--4-44--222--4-44-4444---4-44--222--7-77-7777-----|
D|-------------4-44-4444----------------------------|

Post-Chorus
e|-----------------------|
B|-----------------------|
G|-----------------------|
D|--4-44-5-44-7-77-7-55--|
A|--4-44-5-44-7-77-7-55--| [x2]
D|--4-44-5-44-7-77-7-55--|

Verse 2
e|------------------------------------------------------|
B|---------------------7--------7-7777---5-5555---------|
G|----------2------------6------6-6666---4-4444---------|
D|-----2/4-----444-44------4----4-4444---2-2222---------| [x4]
A|------------------------------4-4444---2-2222---------|
D|--0---------------------------4-4444---2-2222---------|


Chorus
e|--------------------------------------(7-7777)----|
B|--------------------------------------(7-7777)----|
G|--6-66--444--------------6-66--444--9-99-9999-----|
D|--6-66--444--4-44-4444---6-66--444--9-99-9999-----| [x4]
A|--4-44--222--4-44-4444---4-44--222--7-77-7777-----|
D|-------------4-44-4444----------------------------|

Post-Chorus
e|-----------------------|
B|-----------------------|
G|-----------------------|
D|--4-44-5-44-7-77-7-55--|
A|--4-44-5-44-7-77-7-55--| [x2]
D|--4-44-5-44-7-77-7-55--|

Interlude
e|------------------------------------|
B|--------------777--------------555--|
G|---------6-66-666---------4-44-444--|
D|--4-4-44-4-44-444--2-2-22-2-22-222--| [x2]
A|--4-4-44-4-44-444--2-2-22-2-22-222--|
D|--4-4-44-4-44-444--2-2-22-2-22-222--|

Outro
e|------------------------------------------------------------------------------|
B|------------------------------------------------------------------------------|
G|------------------------------------------------------------------------------|
D|--5-5-575-4-44-4444--5-5-575-4-44-4444--5-5-575-4-44-4444--5-5-575-4-44-4444--|
A|--5-5-575-4-44-4444--5-5-575-4-44-4444--5-5-575-4-44-4444--5-5-575-4-44-4444--|
D|--5-5-575-4-44-4444--5-5-575-4-44-4444--5-5-575-4-44-4444--5-5-575-4-44-4444--|
Palm mute

e|-----------------------| e|----------------|
B|-----------------------| B|----------------|
G|-----------------------| G|----------------|
D|--4-44-5-44-7-77-7-55--| D|--4-44-5-44-0~--|
A|--4-44-5-44-7-77-7-55--| [x3] A|--4-44-5-44-0~--|
D|--4-44-5-44-7-77-7-55--| D|--4-44-5-44-0~--|

http://www.guitartabcreator.com
Guitar Tab Creator is intended to store guitar tab created through the tool. It currently does not support in-line text editing. Any text you place in here will be lost. If you need to comment on your tab, please use the "Tab Notes" section located below.