Gummy Apples

(/) Slide Up  (\) Slide Down  (h) Hammer On  (p) Pull Off  (b) Bend (r) Release (v) Vibrato

INTRO

E|--2~--2~--3~--5~---2---2------2---2------3---3------5---5------
B|--3~--3~--3~--5~---3-----3----3-----3----3-----3----5-----5----
G|--2~--4~--4~--6~---2-------2--4-------4--4-------4--6-------6--
D|--0~--4~--5~--7~---0-0--------4-4--------5-5--------7-7--------
A|------2~--5~--7~--------------2----------5----------7----------
E|----------3~--5~-------------------------3----------5----------

VERSE

D, B, G, A [x4]

G, A, D, B, G, A

E|--2---2------2---2------3---3------5---5------
B|--3-----3----3-----3----3-----3----5-----5----
G|--2-------2--4-------4--4-------4--6-------6--
D|--0-0--------4-4--------5-5--------7-7--------
A|-------------2----------5----------7----------
E|------------------------3----------5----------

VERSE 2

D, B, G, A [x4]

G, A, D, B, G, A

E|--2---2------2---2------3---3------5---5------
B|--3-----3----3-----3----3-----3----5-----5----
G|--2-------2--4-------4--4-------4--6-------6--
D|--0-0--------4-4--------5-5--------7-7--------
A|-------------2----------5----------7----------
E|------------------------3----------5----------

Interlude

D, B, G, A [x2]

D, A, D, A,

Outro
D, B, G, A [x2]

E|--2---2------2---2------3---3------5---5------
B|--3-----3----3-----3----3-----3----5-----5----
G|--2-------2--4-------4--4-------4--6-------6--
D|--0-0--------4-4--------5-5--------7-7--------
A|-------------2----------5----------7----------
E|------------------------3----------5---------- [x2]

D, B, G, A [x2]

D, B, G, A [x2]

E|--2---2------2---2------3---3------5---5------
B|--3-----3----3-----3----3-----3----5-----5----
G|--2-------2--4-------4--4-------4--6-------6--
D|--0-0--------4-4--------5-5--------7-7--------
A|-------------2----------5----------7----------
E|------------------------3----------5---------- [x3]





http://www.guitartabcreator.com
Guitar Tab Creator is intended to store guitar tab created through the tool. It currently does not support in-line text editing. Any text you place in here will be lost. If you need to comment on your tab, please use the "Tab Notes" section located below.