Big Secret

(/) Slide Up  (\) Slide Down  (h) Hammer On  (p) Pull Off  (b) Bend (r) Release (v) Vibrato

(x) Hover over notes
CHAD

Big Secret

Intro
e|--------------------------|
B|--------------------------|
G|--------55xx--------------|
D|--33xx--55xx--55xx--88xx--|
A|--33xx--33xx--55xx--88xx--|
E|--11xx--------33xx--66xx--| [x4]

Verse
e|------------------------------------------------------------------------|
B|------------------------------------------------------------------------|
G|----------55--------------------------------55--------------------------|
D|--33------55-----55------88--------33-------55-------55------88---------|
A|--33------33-----55------88--------33-------33-------55------88---------|
E|--11-------------33------66--------11----------------33------66--6/12b--|

e|--------------------|
B|--------------------|
G|-----333--8-85------|
D|--3-3333--8-85555---|
A|--3-3111--6-63555---|
E|--1-1---------333---| [x4]

Chorus
e|------------------------| e|---------------(6666)---(8-8-8-8)-----|
B|------------------------| B|---------------(6666)---(8-8-8-8)-----|
G|--1010--------88--------| G|--1010--------8-8888--10-10101010-----|
D|--1010--8888--88--6688--| [x3] D|--1010--8888--8-8888--10-10101010-----|
A|--8-8---8888--66--6688--| A|--8-8---8888--6-6666--8--8-8-8-8------|
E|--------6666------4466--| E|--------6666--------------------------|

Pre-verse
e|--------------------------|
B|--------------------------|
G|--------55xx--------3--5--|
D|--33xx--55xx--55xx--3--5--| [x4]
A|--33xx--33xx--55xx--1--3--|
E|--11xx--------33xx--------|

Verse 2
e|------------------------------------------------------------------------|
B|------------------------------------------------------------------------|
G|----------55--------------------------------55--------------------------|
D|--33------55-----55------88--------33-------55-------55------88---------|
A|--33------33-----55------88--------33-------33-------55------88---------|
E|--11-------------33------66--------11----------------33------66--6/12b--|

e|--------------------|
B|--------------------|
G|-----333--8-85------|
D|--3-3333--8-85555---|
A|--3-3111--6-63555---|
E|--1-1---------333---| [x4]

Solo [Guitar 1]
e|-------------------------| e|--------------------------
B|-------------------------| B|--------------------------
G|-------3333-8-8-5--------| G|-------3333--8b-8b-8b-8b--
D|--3-33------------555----| [x3] D|--3-33--------------------
A|-------------------------| A|--------------------------
E|-------------------------| E|--------------------------

e|----------------------------------------------------------------|
B|------------8--11-11-10-88-8b8b----8-----8---8----7--7--6--6----|
G|-------8h10----------------------10--1010--10---8--8---7--7-----|
D|--8h10----------------------------------------------------------| [x2]
A|----------------------------------------------------------------|
E|----------------------------------------------------------------|

Solo [Guitar 2]
e|--------------------| e|-------------------
B|--------------------| B|-------------------
G|-----333--8-85------| G|-----333--8-8-8-8--
D|--3-3333--8-85555---| [x3] D|--3-3333--8-8-8-8--
A|--3-3111--6-63555---| A|--3-3111--6-6-6-6--
E|--1-1---------333---| E|--1-1--------------

e|-----------------------------------------------------------|
B|-----------------------------------------------------------|
G|----------------------------------10-10101010--8888--7777--|
D|----------------------------------10-10101010--8888--7777--| [x2]
A|----------------------------------8--8-8-8-8---6666--5555--|
E|-----------------------------------------------------------|

Chorus
e|------------------------| e|---------------(6666)---(8-8-8-8)-----|
B|------------------------| B|---------------(6666)---(8-8-8-8)-----|
G|--1010--------88--------| G|--1010--------8-8888--10-10101010-----|
D|--1010--8888--88--6688--| [x3] D|--1010--8888--8-8888--10-10101010-----|
A|--8-8---8888--66--6688--| A|--8-8---8888--6-6666--8--8-8-8-8------|
E|--------6666------4466--| E|--------6666--------------------------|

Outro
e|--------------------------------------------------
B|--------------------------------------------------
G|--------55xx--------------------55xx--------------
D|--33xx--55xx--55xx--88xx--33xx--55xx--55xx--88xx--
A|--33xx--33xx--55xx--88xx--33xx--33xx--55xx--88xx--
E|--11xx--------33xx--66xx--11xx--------33xx--66xx--

e|-----------------------------------------------------|
B|-----------------------------------------------------|
G|-------xx5------------------xx5----------------------|
D|--xx3--xx5--xx5--xx8---xx3--xx5--xx5--xx8--3--------|
A|--xx3--xx3--xx5--xx8---xx3--xx3--xx5--xx8--3--------|
E|--xx1-------xx3--xx6---xx1-------xx3--xx6--1--------|
Palm
Mute



http://www.guitartabcreator.com
Guitar Tab Creator is intended to store guitar tab created through the tool. It currently does not support in-line text editing. Any text you place in here will be lost. If you need to comment on your tab, please use the "Tab Notes" section located below.