Best Friend

(/) Slide Up  (\) Slide Down  (h) Hammer On  (p) Pull Off  (b) Bend (r) Release (v) Vibrato

INTRO
E|--------------------------------------------------------------------------
B|--------------------------------------------------------------------------
G|--4-44444--2-22222--4-44444--2-22222--4-44444--2-22222--------------------
D|--4-44444--2-22222--4-44444--2-22222--4-44444--2-22222--4-44444--5-55555--
A|--2-22222--0-00000--2-22222--0-00000--2-22222--0-00000--4-44444--5-55555--
E|--------------------------------------------------------2-22222--3-33333--

CHORUS
E|--------------------------------------------------------------------------
B|--------------------------------------------------------------------------
G|--4-44444--2-22222--4-44444--2-22222--4-44444--2-22222--------------------
D|--4-44444--2-22222--4-44444--2-22222--4-44444--2-22222--4-44444--5-55555--
A|--2-22222--0-00000--2-22222--0-00000--2-22222--0-00000--4-44444--5-55555--
E|--------------------------------------------------------2-22222--3-33333--

VERSE
E|--------------------------------------------------------------------------
B|--------------------------------------------------------------------------
G|--------------------------------------------------------5-55555--7-77777--
D|--7-77777--7-77777--5-55555--5-55555--7-77777--7-77777--5-55555--7-77777--
A|--7-77777--7-77777--5-55555--5-55555--7-77777--7-77777--3-33333--5-55555--
E|--5-55555--5-55555--3-33333--3-33333--5-55555--5-55555--------------------

E|--------------------------------------------------------------------------
B|--------------------------------------------------------------------------
G|--------------------------------------------------------5-55555--7-77777--
D|--7-77777--7-77777--5-55555--5-55555--7-77777--7-77777--5-55555--7-77777--
A|--7-77777--7-77777--5-55555--5-55555--7-77777--7-77777--3-33333--5-55555--
E|--5-55555--5-55555--3-33333--3-33333--5-55555--5-55555--------------------

CHORUS
E|--------------------------------------------------------------------------
B|--------------------------------------------------------------------------
G|--4-44444--2-22222--4-44444--2-22222--4-44444--2-22222--------------------
D|--4-44444--2-22222--4-44444--2-22222--4-44444--2-22222--4-44444--5-55555--
A|--2-22222--0-00000--2-22222--0-00000--2-22222--0-00000--4-44444--5-55555--
E|--------------------------------------------------------2-22222--3-33333--


E|--------------------------------------------------------------------------
B|--------------------------------------------------------------------------
G|--4-44444--2-22222--4-44444--2-22222--4-44444--2-22222--------------------
D|--4-44444--2-22222--4-44444--2-22222--4-44444--2-22222--4-44444--5-55555--
A|--2-22222--0-00000--2-22222--0-00000--2-22222--0-00000--4-44444--5-55555--
E|--------------------------------------------------------2-22222--3-33333--

E|--------------------------------------------------------------
B|--------------------------------------------------------------
G|--------------------------------------1~----1~----1~----1~----
D|--4-44444--5-55555--4-44444--5-55555--2~----2~----2~----2~----
A|--4-44444--5-55555--4-44444--5-55555--2~----2~----2~----2~----
E|--2-22222--3-33333--2-22222--3-33333--0~----0~----0~----0~----

CHORUS
E|--------------------------------------------------------------------------
B|--------------------------------------------------------------------------
G|--4-44444--2-22222--4-44444--2-22222--4-44444--2-22222--------------------
D|--4-44444--2-22222--4-44444--2-22222--4-44444--2-22222--4-44444--5-55555--
A|--2-22222--0-00000--2-22222--0-00000--2-22222--0-00000--4-44444--5-55555--
E|--------------------------------------------------------2-22222--3-33333--


E|--------------------------------------------------------------------------
B|--------------------------------------------------------------------------
G|--4-44444--2-22222--4-44444--2-22222--4-44444--2-22222--------------------
D|--4-44444--2-22222--4-44444--2-22222--4-44444--2-22222--4-44444--5-55555--
A|--2-22222--0-00000--2-22222--0-00000--2-22222--0-00000--4-44444--5-55555--
E|--------------------------------------------------------2-22222--3-33333--

E|--------------------------------------------------------------
B|--------------------------------------------------------------
G|--------------------------------------1~----1~----1~----1~----
D|--4-44444--5-55555--4-44444--5-55555--2~----2~----2~----2~----
A|--4-44444--5-55555--4-44444--5-55555--2~----2~----2~----2~----
E|--2-22222--3-33333--2-22222--3-33333--0~----0~----0~----0~----





http://www.guitartabcreator.com
Guitar Tab Creator is intended to store guitar tab created through the tool. It currently does not support in-line text editing. Any text you place in here will be lost. If you need to comment on your tab, please use the "Tab Notes" section located below.