Autumn

(/) Slide Up  (\) Slide Down  (h) Hammer On  (p) Pull Off  (b) Bend (r) Release (v) Vibrato


Autumn

INTRO/VERSE
E|------22------------
B|--22--33--22--------
G|--22--22--22--1-11--
D|--22--00--22--2-22--
A|--00------00--2-22--
E|--------------------[x8]

E|-------------------2--------------------------
B|------2---------------3-----2-----------------
G|---------2------2--------------2--------1-----
D|-------------0------------------------2---2---
A|---0---------------------0----------2---------
E|---------------------------------------------- [x3]

E|-------------------2-----3333-22--3333-22--
B|------2---------------3--3333-33--3333-33--
G|---------2------2--------2222-22--2222-22--
D|-------------0-----------0000-00--0000-00--
A|---0---------------------------------------
E|-------------------------------------------

VERSE 2
E|------22------------
B|--22--33--22--------
G|--22--22--22--1-11--
D|--22--00--22--2-22--
A|--00------00--2-22--
E|--------------------[x4]

E|-------------------2--------------------------
B|------2---------------3-----2-----------------
G|---------2------2--------------2--------1-----
D|-------------0------------------------2---2---
A|---0---------------------0----------2---------
E|---------------------------------------------- [x3]

E|-------------------2-----3333-22--3333-22--
B|------2---------------3--3333-33--3333-33--
G|---------2------2--------2222-22--2222-22--
D|-------------0-----------0000-00--0000-00--
A|---0---------------------------------------
E|-------------------------------------------

VERSE 3
E|--------2222-------------- E|--2-22-222------------2-22-332------------
B|--2-22--3333--2-22-------- B|--3-33-333--2-22-222--3-33-333--2-22-222--
G|--2-22--2222--2-22--1111-- G|--2-22-222--2-22-222--2-22-222--2-22-222--
D|--2-22--0000--2-22--2222-- D|--0-00-000--2-22-222--0-00-000--2-22-222--
A|--0-00--------0-00--2222-- A|------------0-00-000------------0-00-000--
E|-------------------------- [x4] E|------------------------------------------ [x2]

SOLO
E|-----------------------------------------------------
B|-----------------------------------------------------
G|-------5---5--7-7b--5--------------------------------
D|--2/7----7------------7-5-5-5h7--7-77-777--9-99-999--
A|---------------------------------7-77-777--9-99-999--
E|---------------------------------5-55-555--7-77-777--

E|-------------------------------------------------------------------------------------
B|---------------------------t---------------------------------------------------------
G|--------------10----10-[12-12-12]-12b-12b--------12-14-14b-14b--------14-16-16b-16b--
D|--------10-12----12------------------------12h14----------------14h16----------------
A|--5/12-------------------------------------------------------------------------------
E|-------------------------------------------------------------------------------------

E|--------------------------------------------------------------------------------------
B|--------------------------------------------------------------------------------------
G|--10/12-10----10-12-12b--------10-10b-10b--------12-14-14b-14b--------14-16-16b-16b---
D|-----------12------------10h12-------------12h14----------------14h16-----------------
A|--------------------------------------------------------------------------------------
E|--------------------------------------------------------------------------------------

E|-----------------------------------------------------
B|-----------------------------------------------------
G|-------5---5--7-7b--5--------------------------------
D|--2/7----7------------7-5-5-5h7--7-77-777--9-99-999--
A|---------------------------------7-77-777--9-99-999--
E|---------------------------------5-55-555--7-77-777--

VERSE 3
E|--------2222--------------
B|--2-22--3333--2-22--------
G|--2-22--2222--2-22--1111--
D|--2-22--0000--2-22--2222--
A|--0-00--------0-00--2222--
E|-------------------------- [x6]

E|----------------2-22--
B|--2-22-222-2-2--3-33--
G|--2-22-222-2-2--2-22--
D|--2-22-222-2-2--0-00--
A|--0-00-000-0-0--------
E|---------------------- [x4]

OUTRO
E|------22------------
B|--22--33--22--------
G|--22--22--22--1-11--
D|--22--00--22--2-22--
A|--00------00--2-22--
E|--------------------[x2]

E|-------------------2--------------------------
B|------2---------------3-----2-----------------
G|---------2------2--------------2--------1-----
D|-------------0------------------------2---2---
A|---0---------------------0----------2---------
E|---------------------------------------------- [x2]

E|--3~-
B|--2~-
G|--2~-
D|--2~-
A|--0~-
E|-----

http://www.guitartabcreator.com
Guitar Tab Creator is intended to store guitar tab created through the tool. It currently does not support in-line text editing. Any text you place in here will be lost. If you need to comment on your tab, please use the "Tab Notes" section located below.