Ending credits-Opeth

(/) Slide Up  (\) Slide Down  (h) Hammer On  (p) Pull Off  (b) Bend (r) Release (v) Vibrato


E|------------------7p5--7b7r7p5--5h7--
B|----------5h7--7---------------------
G|--4--4h5-----------------------------
D|-------------------------------------
A|-------------------------------------
E|-------------------------------------



E|----------------------------------------------------------
B|----------5h7--7--7--8--5--5------------------------------
G|--4--4h5----------------------4--4--8--4--4h5p4-----------
D|-------------------------------------------------4--2--2--
A|----------------------------------------------------------
E|----------------------------------------------------------



E|-------------------------------------------------
B|-------------------------------------------------
G|--12--12--11h12p11--9--11--14--14--12--11--12b9--
D|-------------------------------------------------
A|-------------------------------------------------
E|-------------------------------------------------



E|---------------------------------------------
B|---------------------------------------------
G|--4h5--5--4h5p4--2--4--2p0--------2p0--------
D|----------------------------4--2-------4--2--
A|---------------------------------------------
E|---------------------------------------------
http://www.guitartabcreator.com
Guitar Tab Creator is intended to store guitar tab created through the tool. It currently does not support in-line text editing. Any text you place in here will be lost. If you need to comment on your tab, please use the "Tab Notes" section located below.