Usurper Verse 1

(/) Slide Up  (\) Slide Down  (h) Hammer On  (p) Pull Off  (b) Bend (r) Release (v) Vibrato


E|------------------------------------------------------------------------
B|------------------------------------------------------------------------
G|------------------------------------------------------------------------
D|------------------------------------------------------------------------
A|------------7-------6-----9-----9-10------------7-------6-----3---6---7-
E|-0-0-0--0-0---0-0-0---0-0---0-0------0-0-0--0-0---0-0-0---0-0---0---0---



E|------------------------------------------------------------------------
B|------------------------------------------------------------------------
G|------------------------------------------------------------------------
D|----------------------------------------------------------------10-9----
A|------------7-------6-----9---9-10------------7-------6-----7--------10-
E|-0-0-0--0-0---0-0-0---0-0---0------0-0-0--0-0---0-0-0---0-0---0---------



E|------------------------------------------------
B|------------------------------------------------
G|------------------------------------------------
D|------------------------------------------------
A|------------------------------------------------
E|-0-0-0--0-0--0-0-0--0-0--1-1-1--1-1--1-1-1--1-1-



E|----------------------------------------------------------------------
B|----------------------------------------------------------------------
G|----------------------------------------------------------------------
D|----------------------------------------------------------------------
A|------------7-------6-----9---9-10------------7-------6-----3---6---7-
E|-0-0-0--0-0---0-0-0---0-0---0------0-0-0--0-0---0-0-0---0-0---0---0---



E|------------------------------------------------------------------------
B|------------------------------------------------------------------------
G|------------------------------------------------------------------------
D|--------------------------------------------------------5-----1-----1-2-
A|------------7-------6-----9-----9-10------------7-----------------------
E|-0-0-0--0-0---0-0-0---0-0---0-0------0-0-0--0-0---0-0-0---0-0---0-0-----



E|-
B|-
G|-
D|-
A|-
E|-
http://www.guitartabcreator.com
Guitar Tab Creator is intended to store guitar tab created through the tool. It currently does not support in-line text editing. Any text you place in here will be lost. If you need to comment on your tab, please use the "Tab Notes" section located below.