Usurper: Crescendo-Breakdown-Decrescendo+misues of dynamics

(/) Slide Up  (\) Slide Down  (h) Hammer On  (p) Pull Off  (b) Bend (r) Release (v) Vibrato


E|-------------------------------------------------------------------------------------------------
B|-------------------------------------------------------------------------------------------------
G|-------------------------------------------------------------------------------------------------
D|-------------------------------------------------------------------------------------------------
A|----------------------------------------------------7----------7--------9--------9--------10-----
E|--0--0--0----0--0--0----0--0--0----0--0--0----0--0-------0--0-----0--0-----0--0-----0--0---------



E|----------------------------------------
B|----------------------------------------
G|----------------------------------------
D|------------------10--------9--------8--
A|--------10------------------------------
E|--0--0------0--0------0--0-----0--0-----



E|----------------------------------------------------------------------------------------------
B|----------------------------------------------------------------------------------------------
G|-------------------------5---4---2------------------------------------------------------------
D|-----------------3---3------------------------------------------------------------------------
A|----------------------------------------------------------------------------------------------
E|-0--0-0-0--0-0-1---1---1---1---1----0--0-0-0--0-0-0--0-0-0--0--0-0-0--0-0-0-0-0-0-0-0-0-0-0-0-
http://www.guitartabcreator.com
Guitar Tab Creator is intended to store guitar tab created through the tool. It currently does not support in-line text editing. Any text you place in here will be lost. If you need to comment on your tab, please use the "Tab Notes" section located below.