Usurper Chorus

(/) Slide Up  (\) Slide Down  (h) Hammer On  (p) Pull Off  (b) Bend (r) Release (v) Vibrato


E|-------------------------------------------------------------------------------------------------
B|-------------------------------------------------------------------------------------------------
G|-------------------------------------------------------------------------------------------------
D|-------------------------------------------------------------------------------------------------
A|-7----------10----------14------------------13-------10-------9-------6-------7------------------
E|---0-0-0--0----0-0-0--0----0-0-0--0-0-0-0-0----0-0-0----0-0-0---0-0-0---0-0-0---0-0-0--0-0-0-0-0-



E|-------------------------------------------------------------------------------------------
B|-------------------------------------------------------------------------------------------
G|-------------------------------------------------------------------------------------------
D|-------------------------------------------------------------------------------------------
A|-7----------10----------13----------9----------6----------9----------7----------3----------
E|---0-0-0--0----0-0-0--0----0-0-0--0---0-0-0--0---0-0-0--0---0-0-0--0---0-0-0--0---0-0-0--0-



E|---------------------------------------------------------
B|---------------------------------------------------------
G|---------------------------------------------------------
D|---------------------------------------------------------
A|---------------------------------------------------------
E|-0-0-0--0-0-0---2-2-2--2-2-2--3-3-3--3-3-3--7-7-7--7-7-7-
http://www.guitartabcreator.com
Guitar Tab Creator is intended to store guitar tab created through the tool. It currently does not support in-line text editing. Any text you place in here will be lost. If you need to comment on your tab, please use the "Tab Notes" section located below.