Usurper

(/) Slide Up  (\) Slide Down  (h) Hammer On  (p) Pull Off  (b) Bend (r) Release (v) Vibrato


E|---------------------------------------------------------------------------------------------
B|---------------------------------------------------------------------------------------------
G|---------------------------------------------------------------------------------------------
D|------------------------------------------------4-5------------------------------------------
A|---------------3-2-1----------------------3-2-1--------------------3-2-1---------1-2-3---6-7-
E|-0-0-0-0-0-0-0---------2-3--0-0-0-0-0-0-0------------0-0-0-0-0-0-0--------1-0----------------



E|--------------------------------------------------------------------------------------
B|--------------------------------------------------------------------------------------
G|--------------------------------------------------------------------------------------
D|--------------------------------------------------------------------------------------
A|-7---------10-------6--3-------6-------7-----------------10-----7---------------------
E|---0-0-0-0----0-0-0------0-0-0---0-0-0---0-0-0-0-0-0-0-0----0-0---0-0-0-0-0-0-0-0-1-0-



E|---------------------------------------------------------------------------
B|---------------------------------------------------------------------------
G|---------------------------------------------------------------------------
D|---------------------------------------------------------------------------
A|-----------7-------6-----9-----9-10-----------7-------6-----10---3---7---6-
E|-0-0-0-0-0---0-0-0---0-0---0-0------0-0-0-0-0---0-0-0---0-0----0---0---0---



E|------------------------------------------------------------------------------
B|------------------------------------------------------------------------------
G|------------------------------------------------------------------------------
D|------------------------------------------------------------------------------
A|-------------------7---------10---------6-------------3-------6-------7-------
E|-0-0-0-0-0-0-0-0-0---0-0-0-0----0-0-0-0---0-0-0-0-0-0---0-0-0---0-0-0---0-0-0-



E|--------------------------------------------------------------------------
B|--------------------------------------------------------------------------
G|--------------------------------------------------------------------------
D|--------------------------------------------------------------10-9--------
A|-----------7-------6-----9-----9-10-----------7-----6-----7--------10-9---
E|-0-0-0-0-0---0-0-0---0-0---0-0------0-0-0-0-0---0-0---0-0---0-------------
http://www.guitartabcreator.com
Guitar Tab Creator is intended to store guitar tab created through the tool. It currently does not support in-line text editing. Any text you place in here will be lost. If you need to comment on your tab, please use the "Tab Notes" section located below.