Stairway To Heaven Solo- Led Zeppelin

(/) Slide Up  (\) Slide Down  (h) Hammer On  (p) Pull Off  (b) Bend (r) Release (v) Vibrato


E|-----5--------------------------------|------8--8b8--8--5--|--------8--10p8-----------------|-----
B|--------8--5--------------------------|--b8----------------|--8\10-----------10p8-----8h10--|-----
G|--7-----------7--5-----7--5-----------|--------------------|-----------------------9--------|-----
D|--------------------7--------7--5-----|--------------------|--------------------------------|-----
A|-----------------------------------8--|--------------------|--------------------------------|-----
E|--------------------------------------|--------------------|--------------------------------|-----



E|-----5--------------------------------------|--
B|--------8--5--------------------------------|--
G|--7-----------7--5-----7--5-----------------|--
D|--------------------7--------7--5-----5--7--|--
A|-----------------------------------7--------|--
E|--------------------------------------------|--
http://www.guitartabcreator.com
Guitar Tab Creator is intended to store guitar tab created through the tool. It currently does not support in-line text editing. Any text you place in here will be lost. If you need to comment on your tab, please use the "Tab Notes" section located below.