Know Your Enemy Solo- Green Day

Know Your Enemy Solo-Green Day

E|----------------------------------------------11--11------|--------------------------
B|--12--12--12------12--12------12--12--12------------------|--12--12--12------12--12--
G|--------------11----------11--------------11----------11--|--------------11----------
D|----------------------------------------------------------|--------------------------
A|----------------------------------------------------------|--------------------------
E|----------------------------------------------------------|--------------------------



E|--------------------------|--
B|------14--14--14------14--|--
G|--11--------------11------|--
D|--------------------------|--
A|--------------------------|--
E|--------------------------|--



E|----------------------------------------------11--11------|--------------------------
B|--12--12--12------12--12------12--12--12------------------|--12--12--12------12--12--
G|--------------11----------11--------------11----------11--|--------------11----------
D|----------------------------------------------------------|--------------------------
A|----------------------------------------------------------|--------------------------
E|----------------------------------------------------------|--------------------------



E|--------------------------|--
B|------14--14--14------14--|--
G|--11--------------11------|--
D|--------------------------|--
A|--------------------------|--
E|--------------------------|--

Solo Prt2

E|-------------------------|----------------|--
B|--------12-----------12--|---------12-----|--
G|--9--9------9--9--8------|-----11---------|--
D|-------------------------|--9----------9--|--
A|-------------------------|----------------|--
E|-------------------------|----------------|--
http://www.guitartabcreator.com
Guitar Tab Creator is intended to store guitar tab created through the tool. It currently does not support in-line text editing. Any text you place in here will be lost. If you need to comment on your tab, please use the "Tab Notes" section located below.