Another Brick in the Wall (Purgatorium version)

(/) Slide Up  (\) Slide Down  (h) Hammer On  (p) Pull Off  (b) Bend (r) Release (v) Vibrato


E|--------------------|-1---1-1---1-1--1-1-|------------------|-
B|--------------------|-3---3-3---3-3--3-3-|------------------|-
G|--------------------|-2---2-2---2-2--2-2-|------------------|-
D|-0--2-3-2--0--2-3-2-|-0---0-0---0-0--0-0-|-0--2-3-2--0--2-3-|-
A|-0--2-3-2--0--2-3-2-|-0---0-0---0-0--0-0-|-0--2-3-2--0--2-3-|-
E|-0--2-3-2--0--2-3-2-|-0---0-0---0-0--0-0-|-0--2-3-2--0--2-3-|-



E|---------------------------------|-----------------------------------|-
B|-8-8-8-8-8-8-8-8-8-8-8-8-8-8-8-8-|-----------------------------------|-
G|-7-7-7-7-7-7-7-7-7-7-7-7-7-7-7-7-|-----------------------------------|-
D|-5-5-5-5-5-5-5-5-5-5-5-5-5-5-5-5-|-12-10--10h12-12-12--10-10--9-9--7-|-
A|-5-5-5-5-5-5-5-5-5-5-5-5-5-5-5-5-|-12-10--10-12-12-12--10-10--9-9--7-|-
E|-5-5-5-5-5-5-5-5-5-5-5-5-5-5-5-5-|-12-10--10-12-12-12--10-10--9-9--7-|-



E|-----------------------------------
B|-----------------------------------
G|-----------------7-7-7-7-7---------
D|-5-5-5-5-5-5-5-5-7-7-7-7-7---------
A|-5-5-5-5-5-5-5-5-5-5-5-5-5-0--3--5-
E|-5-5-5-5-5-5-5-5-----------0--3--5-
http://www.guitartabcreator.com
Guitar Tab Creator is intended to store guitar tab created through the tool. It currently does not support in-line text editing. Any text you place in here will be lost. If you need to comment on your tab, please use the "Tab Notes" section located below.