Another Brick in the Wall part 1

(/) Slide Up  (\) Slide Down  (h) Hammer On  (p) Pull Off  (b) Bend (r) Release (v) Vibrato


E|-----------------|-----------|-------------|---------|-------12-|-------|-------|-
B|-----------------|-----------|-------------|---------|-------12-|-------|-------|-
G|-----------------|-----------|-------------|-----7p5-|----------|-------|-------|-
D|-----4---3---3---|-----------|-----3---5---|-5h7-----|----------|-------|---7p5-|-
A|-3h5---5---5---5-|-2h4-3-2-1-|-3h5---3---3-|---------|-0-5h7----|-5/7\5-|-5-----|-
E|-----------------|-----------|-------------|---------|----------|-------|-------|-



E|-------------|-------------|------------------------|------------------|-
B|-------------|-------------|------------------------|------------------|-
G|-----------7-|-----------5-|---------------7--------|---------7--------|-
D|-1/-3----x-7-|-0-3-5-4-3---|-----------5---7--------|------5--7--------|-
A|-1--3----x-5-|-------------|-----------5---5--------|------5--5--------|-
E|-1--3--------|-------------|-3/7-7\3---5------0-3-5-|-7\0--5-----0-3-5-|-



E|----------------7-9p7-|-------------------|---------|-------7-9p7-------------|-
B|----------6-8p6-------|-------------------|---------|-------------------------|-
G|----5-7p5-------------|-5-7p5-------------|---------|-5-7p5-------------------|-
D|-3--------------------|-------4-6p4-------|---5p3-3-|-------------6-8p6-------|-
A|-3--------------------|-------------3-5p3-|-1-------|-------------------3-5p3-|-
E|-3--------------------|-------------------|---------|-------------------------|-



E|-------|-----------------|---------7-|-----------|---------5-|---------|-
B|-------|-----------------|-----7p5-7-|-----------|-----7p5-5-|---------|-
G|-------|-----------------|---7-7-5---|-3/5\3-1-3-|---7-7-5---|---------|-
D|-2-4r2-|-----------------|---7-------|-----------|---7-------|-5/7-5p3-|-
A|-------|-----------------|-5-7-------|-----------|-5---------|---------|-
E|-------|-3-3-3-3-3-3-3h5-|-5---------|-----------|-5---------|---------|-



E|-----------|-6/8-6\5-|----------10-|-12--13-|-----|-
B|---------7-|---------|----------10-|--------|-----|-
G|---7-5h7-7-|---------|---7-9-7-----|--------|-----|-
D|-7-7-5-7---|---------|-5-7-9-7-----|--------|-3/6-|-
A|-7---------|---------|-5-----------|--------|-3-6-|-
E|-----------|---------|-------------|--------|-----|-
http://www.guitartabcreator.com
Guitar Tab Creator is intended to store guitar tab created through the tool. It currently does not support in-line text editing. Any text you place in here will be lost. If you need to comment on your tab, please use the "Tab Notes" section located below.