Love Manically

(/) Slide Up  (\) Slide Down  (h) Hammer On  (p) Pull Off  (b) Bend (r) Release (v) Vibrato
E|--------------------------------------------------
B|-----------5-----------5-----------5-----------5--
G|--------------------------------------------------
D|-----5-----------5-----------5-----------5--------
A|--3-----3-----3-----3-----3-----3-----3-----3-----
E|--------------------------------------------------



E|--------------------------------------------------
B|-----------8-----------8-----------8-----------8--
G|--------------------------------------------------
D|-----5-----------5-----------5-----------5--------
A|--7-----7-----7-----7-----7-----7-----7-----7-----
E|--------------------------------------------------



E|--------------------------------------------------
B|-----------5-----------5-----------5-----------5--
G|-----5-----------5-----------5-----------5--------
D|--3-----3-----3-----3-----3-----3-----3-----3-----
A|--------------------------------------------------
E|--------------------------------------------------



E|-----------------------------------------------------
B|-----------8-----------8-----------8-----------8-----
G|-----7-----------7-----------7-----------7-----------
D|--5-----5-----5-----5-----5-----5-----5-----5--------
A|-----------------------------------------------------
E|-----------------------------------------------------



E|--------------------------------------------------
B|-----------6-----------6-----------6-----------6--
G|-----9-----------9-----------9-----------9--------
D|--6-----6-----6-----6-----6-----6-----6-----6-----
A|--------------------------------------------------
E|--------------------------------------------------



E|---------------------------------------------------------
B|-----------10-----------10-----------10-----------10-----
G|-----9------------9------------9------------9------------
D|--7-----7------7-----7------7-----7------7-----7---------
A|---------------------------------------------------------
E|---------------------------------------------------------



E|--------------------------------------------------
B|-----------5-----------5-----------5-----------5--
G|-----5-----------5-----------5-----------5--------
D|--3-----3-----3-----3-----3-----3-----3-----3-----
A|--------------------------------------------------
E|--------------------------------------------------



E|--------------------------------------------------
B|-----------5-----------5-----------5-----------5--
G|-----7-----------7-----------7-----------7--------
D|--5-----5-----5-----5-----5-----5-----5-----5-----
A|--------------------------------------------------
E|--------------------------------------------------



E|-----------5-----------5-----------5-----------5-----------2-----------2-----------2-----------2--
B|--------------------------------------------------------------------------------------------------
G|-----5-----------5-----------5-----------5-----------2-----------2-----------2-----------2--------
D|--3-----3-----3-----3-----3-----3-----3-----3-----0-----0-----0-----0-----0-----0-----0-----0-----
A|--------------------------------------------------------------------------------------------------
E|--------------------------------------------------------------------------------------------------



E|-----------5-----------5-----------5-----------5-----------2-----------2-----------7-----------7--
B|--------------------------------------------------------------------------------------------------
G|-----5-----------5-----------5-----------5-----------2-----------2-----------7-----------7--------
D|--3-----3-----3-----3-----3-----3-----3-----3-----0-----0-----0-----0-----5-----5-----5-----5-----
A|--------------------------------------------------------------------------------------------------
E|--------------------------------------------------------------------------------------------------
http://www.guitartabcreator.com
Guitar Tab Creator is intended to store guitar tab created through the tool. It currently does not support in-line text editing. Any text you place in here will be lost. If you need to comment on your tab, please use the "Tab Notes" section located below.