Solo Good

(/) Slide Up  (\) Slide Down  (h) Hammer On  (p) Pull Off  (b) Bend (r) Release (v) Vibrato


E|-------------------------------------------------------------------------------------
B|-------------------------------------------------------------------------------------
G|--12h14r12----------12h14r12------12--14--12--14b16b14--12--14--12--11/12\11/12------
D|------------14--12------------14-------------------------------------------------14--
A|-------------------------------------------------------------------------------------
E|-------------------------------------------------------------------------------------



E|---------------------------------------------------------------------------------------------------
B|---------------------------------------------------------------------------------------------------
G|---------------------------------------------------------------------------------------------------
D|------12--14\12--10--14\12/14\12--10--10--7-----9b10b9--7--7p5h7p5---------------------------------
A|--15-----------------------------------------9----------------------5--5p3h5p3p0--5--7b8b7--2--2b3b
E|---------------------------------------------------------------------------------------------------



E|-----
B|-----
G|-----
D|-----
A|--0--
E|-----
http://www.guitartabcreator.com
Guitar Tab Creator is intended to store guitar tab created through the tool. It currently does not support in-line text editing. Any text you place in here will be lost. If you need to comment on your tab, please use the "Tab Notes" section located below.